  0
SECTION
  2
HEADER
  9
$ACADVER
  1
AC1015
  9
$ACADMAINTVER
 70
     6
  9
$DWGCODEPAGE
  3
ANSI_932
  9
$INSBASE
 10
0.0
 20
0.0
 30
0.0
  9
$EXTMIN
 10
-266.5777587890625
 20
-298.8721095299228
 30
-165.8848713609188
  9
$EXTMAX
 10
731.7615707852024
 20
234.3977661132812
 30
166.6135668371413
  9
$LIMMIN
 10
0.0
 20
0.0
  9
$LIMMAX
 10
0.0
 20
0.0
  9
$ORTHOMODE
 70
     0
  9
$REGENMODE
 70
     1
  9
$FILLMODE
 70
     1
  9
$QTEXTMODE
 70
     0
  9
$MIRRTEXT
 70
     1
  9
$LTSCALE
 40
1.0
  9
$ATTMODE
 70
     1
  9
$TEXTSIZE
 40
0.2
  9
$TRACEWID
 40
0.05
  9
$TEXTSTYLE
  7
Standard
  9
$CLAYER
  8
LEVEL0
  9
$CELTYPE
  6
Continuous
  9
$CECOLOR
 62
   256
  9
$CELTSCALE
 40
1.0
  9
$DISPSILH
 70
     0
  9
$DIMSCALE
 40
1.0
  9
$DIMASZ
 40
3.5
  9
$DIMEXO
 40
4.0
  9
$DIMDLI
 40
0.38
  9
$DIMRND
 40
0.0
  9
$DIMDLE
 40
0.0
  9
$DIMEXE
 40
4.0
  9
$DIMTP
 40
0.0
  9
$DIMTM
 40
0.0
  9
$DIMTXT
 40
3.5
  9
$DIMCEN
 40
0.09
  9
$DIMTSZ
 40
0.0
  9
$DIMTOL
 70
     0
  9
$DIMLIM
 70
     0
  9
$DIMTIH
 70
     0
  9
$DIMTOH
 70
     0
  9
$DIMSE1
 70
     0
  9
$DIMSE2
 70
     0
  9
$DIMTAD
 70
     1
  9
$DIMZIN
 70
     0
  9
$DIMBLK
  1

  9
$DIMASO
 70
     1
  9
$DIMSHO
 70
     1
  9
$DIMPOST
  1

  9
$DIMAPOST
  1

  9
$DIMALT
 70
     0
  9
$DIMALTD
 70
     2
  9
$DIMALTF
 40
25.4
  9
$DIMLFAC
 40
1.0
  9
$DIMTOFL
 70
     1
  9
$DIMTVP
 40
0.0
  9
$DIMTIX
 70
     0
  9
$DIMSOXD
 70
     0
  9
$DIMSAH
 70
     0
  9
$DIMBLK1
  1

  9
$DIMBLK2
  1

  9
$DIMSTYLE
  2
Standard
  9
$DIMCLRD
 70
     0
  9
$DIMCLRE
 70
     0
  9
$DIMCLRT
 70
     1
  9
$DIMTFAC
 40
1.0
  9
$DIMGAP
 40
0.09
  9
$DIMJUST
 70
     0
  9
$DIMSD1
 70
     0
  9
$DIMSD2
 70
     0
  9
$DIMTOLJ
 70
     1
  9
$DIMTZIN
 70
     0
  9
$DIMALTZ
 70
     0
  9
$DIMALTTZ
 70
     0
  9
$DIMUPT
 70
     0
  9
$DIMDEC
 70
     1
  9
$DIMTDEC
 70
     4
  9
$DIMALTU
 70
     2
  9
$DIMALTTD
 70
     2
  9
$DIMTXSTY
  7
Standard
  9
$DIMAUNIT
 70
     0
  9
$DIMADEC
 70
     0
  9
$DIMALTRND
 40
0.0
  9
$DIMAZIN
 70
     0
  9
$DIMDSEP
 70
     0
  9
$DIMATFIT
 70
     1
  9
$DIMFRAC
 70
     0
  9
$DIMLDRBLK
  1

  9
$DIMLUNIT
 70
     2
  9
$DIMLWD
 70
     0
  9
$DIMLWE
 70
     0
  9
$DIMTMOVE
 70
     0
  9
$LUNITS
 70
     2
  9
$LUPREC
 70
     1
  9
$SKETCHINC
 40
0.1
  9
$FILLETRAD
 40
0.0
  9
$AUNITS
 70
     0
  9
$AUPREC
 70
     1
  9
$MENU
  1
acad
  9
$ELEVATION
 40
0.0
  9
$PELEVATION
 40
0.0
  9
$THICKNESS
 40
0.0
  9
$LIMCHECK
 70
     0
  9
$CHAMFERA
 40
0.0
  9
$CHAMFERB
 40
0.0
  9
$CHAMFERC
 40
0.0
  9
$CHAMFERD
 40
0.0
  9
$SKPOLY
 70
     0
  9
$TDCREATE
 40
2459398.093101852
  9
$TDUCREATE
 40
2459397.718101852
  9
$TDUPDATE
 40
2459398.470585614
  9
$TDUUPDATE
 40
2459398.095585614
  9
$TDINDWG
 40
0.0036464005
  9
$TDUSRTIMER
 40
0.0036464005
  9
$USRTIMER
 70
     1
  9
$ANGBASE
 50
0.0
  9
$ANGDIR
 70
     0
  9
$PDMODE
 70
     2
  9
$PDSIZE
 40
-1.0
  9
$PLINEWID
 40
0.0
  9
$SPLFRAME
 70
     0
  9
$SPLINETYPE
 70
     6
  9
$SPLINESEGS
 70
     8
  9
$HANDSEED
  5
2CC
  9
$SURFTAB1
 70
     6
  9
$SURFTAB2
 70
     6
  9
$SURFTYPE
 70
     6
  9
$SURFU
 70
     6
  9
$SURFV
 70
     6
  9
$UCSBASE
  2

  9
$UCSNAME
  2

  9
$UCSORG
 10
0.0
 20
0.0
 30
0.0
  9
$UCSXDIR
 10
1.0
 20
0.0
 30
0.0
  9
$UCSYDIR
 10
0.0
 20
1.0
 30
0.0
  9
$UCSORTHOREF
  2

  9
$UCSORTHOVIEW
 70
     0
  9
$UCSORGTOP
 10
0.0
 20
0.0
 30
0.0
  9
$UCSORGBOTTOM
 10
0.0
 20
0.0
 30
0.0
  9
$UCSORGLEFT
 10
0.0
 20
0.0
 30
0.0
  9
$UCSORGRIGHT
 10
0.0
 20
0.0
 30
0.0
  9
$UCSORGFRONT
 10
0.0
 20
0.0
 30
0.0
  9
$UCSORGBACK
 10
0.0
 20
0.0
 30
0.0
  9
$PUCSBASE
  2

  9
$PUCSNAME
  2

  9
$PUCSORG
 10
0.0
 20
0.0
 30
0.0
  9
$PUCSXDIR
 10
1.0
 20
0.0
 30
0.0
  9
$PUCSYDIR
 10
0.0
 20
1.0
 30
0.0
  9
$PUCSORTHOREF
  2

  9
$PUCSORTHOVIEW
 70
     0
  9
$PUCSORGTOP
 10
0.0
 20
0.0
 30
0.0
  9
$PUCSORGBOTTOM
 10
0.0
 20
0.0
 30
0.0
  9
$PUCSORGLEFT
 10
0.0
 20
0.0
 30
0.0
  9
$PUCSORGRIGHT
 10
0.0
 20
0.0
 30
0.0
  9
$PUCSORGFRONT
 10
0.0
 20
0.0
 30
0.0
  9
$PUCSORGBACK
 10
0.0
 20
0.0
 30
0.0
  9
$USERI1
 70
     0
  9
$USERI2
 70
     0
  9
$USERI3
 70
     0
  9
$USERI4
 70
     0
  9
$USERI5
 70
     0
  9
$USERR1
 40
0.0
  9
$USERR2
 40
0.0
  9
$USERR3
 40
0.0
  9
$USERR4
 40
0.0
  9
$USERR5
 40
0.0
  9
$WORLDVIEW
 70
     1
  9
$SHADEDGE
 70
     3
  9
$SHADEDIF
 70
    70
  9
$TILEMODE
 70
     1
  9
$MAXACTVP
 70
    16
  9
$PINSBASE
 10
0.0
 20
0.0
 30
0.0
  9
$PLIMCHECK
 70
     0
  9
$PEXTMIN
 10
1.000000000000000E+20
 20
1.000000000000000E+20
 30
1.000000000000000E+20
  9
$PEXTMAX
 10
-1.000000000000000E+20
 20
-1.000000000000000E+20
 30
-1.000000000000000E+20
  9
$PLIMMIN
 10
0.0
 20
0.0
  9
$PLIMMAX
 10
12.0
 20
9.0
  9
$UNITMODE
 70
     0
  9
$VISRETAIN
 70
     0
  9
$PLINEGEN
 70
     1
  9
$PSLTSCALE
 70
     0
  9
$TREEDEPTH
 70
  3020
  9
$CMLSTYLE
  2
Standard
  9
$CMLJUST
 70
     0
  9
$CMLSCALE
 40
1.0
  9
$PROXYGRAPHICS
 70
     0
  9
$MEASUREMENT
 70
     0
  9
$CELWEIGHT
370
     0
  9
$ENDCAPS
280
     0
  9
$JOINSTYLE
280
     0
  9
$LWDISPLAY
290
     0
  9
$INSUNITS
 70
     4
  9
$HYPERLINKBASE
  1

  9
$STYLESHEET
  1

  9
$XEDIT
290
     1
  9
$CEPSNTYPE
380
     0
  9
$PSTYLEMODE
290
     1
  9
$FINGERPRINTGUID
  2

  9
$VERSIONGUID
  2
{6299224A-16B8-4632-8D90-ECF48BBCD344}
  9
$EXTNAMES
290
     1
  9
$PSVPSCALE
 40
0.0
  9
$OLESTARTUP
290
     0
  0
ENDSEC
  0
SECTION
  2
CLASSES
  0
CLASS
  1
LWPOLYLINE
  2
AcDbPolyline
  3
AutoCAD 2000
 90
        0
280
     0
281
     1
  0
CLASS
  1
IMAGE
  2
AcDbRasterImage
  3
ISM
 90
      127
280
     0
281
     1
  0
CLASS
  1
OLE2FRAME
  2
AcDbOle2Frame
  3
AutoCAD 2000
 90
        0
280
     0
281
     1
  0
CLASS
  1
HATCH
  2
AcDbHatch
  3
AutoCAD 2000
 90
        0
280
     0
281
     1
  0
CLASS
  1
DICTIONARYVAR
  2
AcDbDictionaryVar
  3
ObjectDBX Classes
 90
        0
280
     0
281
     0
  0
CLASS
  1
RASTERVARIABLES
  2
AcDbRasterVariables
  3
ISM
 90
        0
280
     0
281
     0
  0
CLASS
  1
IMAGEDEF
  2
AcDbRasterImageDef
  3
ISM
 90
        0
280
     0
281
     0
  0
CLASS
  1
IMAGEDEF_REACTOR
  2
AcDbRasterImageDefReactor
  3
ISM
 90
        1
280
     0
281
     0
  0
CLASS
  1
IDBUFFER
  2
AcDbIdBuffer
  3
ObjectDBX Classes
 90
        0
280
     0
281
     0
  0
CLASS
  1
SPATIAL_FILTER
  2
AcDbSpatialFilter
  3
ObjectDBX Classes
 90
        0
280
     0
281
     0
  0
CLASS
  1
XRECORD
  2
AcDbXrecord
  3
AutoCAD 2000
 90
        0
280
     0
281
     0
  0
CLASS
  1
SORTENTSTABLE
  2
AcDbSortentsTable
  3
ObjectDBX Classes
 90
        0
280
     0
281
     0
  0
CLASS
  1
LAYER_INDEX
  2
AcDbLayerIndex
  3
ObjectDBX Classes
 90
        0
280
     0
281
     0
  0
CLASS
  1
SPATIAL_INDEX
  2
AcDbSpatialIndex
  3
AutoCAD 2000
 90
        0
280
     0
281
     0
  0
CLASS
  1
OBJECT_PTR
  2
CAseDLPNTableRecord
  3
ASE-LPNTableRecord
 90
        1
280
     0
281
     0
  0
CLASS
  1
LAYOUT
  2
AcDbLayout
  3
ObjectDBX Classes
 90
        0
280
     0
281
     0
  0
CLASS
  1
PLOTSETTINGS
  2
AcDbPlotSettings
  3
ObjectDBX Classes
 90
        0
280
     0
281
     0
  0
CLASS
  1
ACDBDICTIONARYWDFLT
  2
AcDbDictionaryWithDefault
  3
ObjectDBX Classes
 90
        0
280
     0
281
     0
  0
CLASS
  1
ACDBPLACEHOLDER
  2
AcDbPlaceHolder
  3
ObjectDBX Classes
 90
        0
280
     0
281
     0
  0
CLASS
  1
SCALE
  2
AcDbScale
  3
ObjectDBX Classes
 90
     1153
280
     0
281
     0
  0
CLASS
  1
MATERIAL
  2
AcDbMaterial
  3
ObjectDBX Classes
 90
     1153
280
     0
281
     0
  0
CLASS
  1
TABLESTYLE
  2
AcDbTableStyle
  3
ObjectDBX Classes
 90
     4095
280
     0
281
     0
  0
CLASS
  1
MLEADERSTYLE
  2
AcDbMLeaderStyle
  3
ACDB_MLEADERSTYLE_CLASS
 90
     4095
280
     0
281
     0
  0
CLASS
  1
VISUALSTYLE
  2
AcDbVisualStyle
  3
ObjectDBX Classes
 90
     4095
280
     0
281
     0
  0
ENDSEC
  0
SECTION
  2
TABLES
  0
TABLE
  2
VPORT
  5
7
102
{ACAD_XDICTIONARY
360
290
102
}
330
0
100
AcDbSymbolTable
 70
     1
  0
VPORT
  5
15
330
7
100
AcDbSymbolTableRecord
100
AcDbViewportTableRecord
  2
*ACTIVE
 70
     0
 10
0.0
 20
0.0
 11
1.0
 21
1.0
 12
-109.6434355160933
 22
-224.159949347595
 13
0.0
 23
0.0
 14
1.0
 24
1.0
 15
0.0
 25
0.0
 16
0.0
 26
0.0
 36
1.0
 17
0.0
 27
0.0
 37
0.0
 40
1515.052513619967
 41
1.915912031047865
 42
50.0
 43
0.0
 44
0.0
 50
0.0
 51
0.0
 71
     0
 72
   100
 73
     1
 74
     1
 75
     0
 76
     0
 77
     0
 78
     0
281
     0
 65
     0
110
0.0
120
0.0
130
0.0
111
1.0
121
0.0
131
0.0
112
0.0
122
1.0
132
0.0
 79
     0
146
0.0
  0
ENDTAB
  0
TABLE
  2
LTYPE
  5
4
330
0
100
AcDbSymbolTable
 70
     2
  0
LTYPE
  5
11
330
4
100
AcDbSymbolTableRecord
100
AcDbLinetypeTableRecord
  2
ByBlock
 70
     0
  3

 72
    65
 73
     0
 40
0.0
  0
LTYPE
  5
12
330
4
100
AcDbSymbolTableRecord
100
AcDbLinetypeTableRecord
  2
ByLayer
 70
     0
  3

 72
    65
 73
     0
 40
0.0
  0
LTYPE
  5
13
330
4
100
AcDbSymbolTableRecord
100
AcDbLinetypeTableRecord
  2
Continuous
 70
     0
  3
Solid line
 72
    65
 73
     0
 40
0.0
  0
LTYPE
  5
26
330
4
100
AcDbSymbolTableRecord
100
AcDbLinetypeTableRecord
  2
SOLID
 70
     0
  3
Solid line
 72
    65
 73
     0
 40
0.0
  0
ENDTAB
  0
TABLE
  2
LAYER
  5
2
330
0
100
AcDbSymbolTable
 70
     3
  0
LAYER
  5
14
330
2
100
AcDbSymbolTableRecord
100
AcDbLayerTableRecord
  2
0
 70
     0
 62
     7
  6
Continuous
370
    -3
390
1D
  0
LAYER
  5
23
330
2
100
AcDbSymbolTableRecord
100
AcDbLayerTableRecord
  2
LEVEL0
 70
     0
 62
     7
  6
Continuous
370
    -3
390
1D
  0
LAYER
  5
251
330
2
100
AcDbSymbolTableRecord
100
AcDbLayerTableRecord
  2
説明文
 70
     0
 62
   151
  6
Continuous
370
    -3
390
1D
  0
ENDTAB
  0
TABLE
  2
STYLE
  5
3
330
0
100
AcDbSymbolTable
 70
     3
  0
STYLE
  5
17
330
3
100
AcDbSymbolTableRecord
100
AcDbTextStyleTableRecord
  2
Standard
 70
     0
 40
0.0
 41
1.0
 50
0.0
 71
     0
 42
0.0
  3
txt
  4

  0
STYLE
  5
1F2
330
3
100
AcDbSymbolTableRecord
100
AcDbTextStyleTableRecord
  2
-3UR
 70
     0
 40
0.2
 41
1.0
 50
0.0
 71
     0
 42
0.2
  3
-3UR.ttf
  4

  0
STYLE
  5
253
330
3
100
AcDbSymbolTableRecord
100
AcDbTextStyleTableRecord
  2
MX_NOTE_STANDARD
 70
     0
 40
0.0
 41
1.0
 50
0.0
 71
     0
 42
4.165599822998046
  3
simplex.shx
  4
bigfont.shx
  0
ENDTAB
  0
TABLE
  2
VIEW
  5
5
330
0
100
AcDbSymbolTable
 70
     0
  0
ENDTAB
  0
TABLE
  2
UCS
  5
6
330
0
100
AcDbSymbolTable
 70
     0
  0
ENDTAB
  0
TABLE
  2
APPID
  5
8
330
0
100
AcDbSymbolTable
 70
     2
  0
APPID
  5
16
330
8
100
AcDbSymbolTableRecord
100
AcDbRegAppTableRecord
  2
ACAD
 70
     0
  0
APPID
  5
230
330
8
100
AcDbSymbolTableRecord
100
AcDbRegAppTableRecord
  2
ACAD_MLEADERVER
 70
     0
  0
ENDTAB
  0
TABLE
  2
DIMSTYLE
  5
9
330
0
100
AcDbSymbolTable
 70
     1
100
AcDbDimStyleTable
  0
DIMSTYLE
105
18
330
9
100
AcDbSymbolTableRecord
100
AcDbDimStyleTableRecord
  2
Standard
 70
     0
 41
3.5
 42
4.0
 44
4.0
 73
     0
 74
     0
 77
     1
140
3.5
172
     1
178
     1
289
     1
340
17
  0
ENDTAB
  0
TABLE
  2
BLOCK_RECORD
  5
1
330
0
100
AcDbSymbolTable
 70
     7
  0
BLOCK_RECORD
  5
A
330
1
100
AcDbSymbolTableRecord
100
AcDbBlockTableRecord
  2
*MODEL_SPACE
340
20
  0
BLOCK_RECORD
  5
B
330
1
100
AcDbSymbolTableRecord
100
AcDbBlockTableRecord
  2
*PAPER_SPACE
340
21
  0
BLOCK_RECORD
  5
24
330
1
100
AcDbSymbolTableRecord
100
AcDbBlockTableRecord
  2
*G0
340
0
102
{BLKREFS
331
1F9
102
}
  0
BLOCK_RECORD
  5
BA
330
1
100
AcDbSymbolTableRecord
100
AcDbBlockTableRecord
  2
*G1
340
0
102
{BLKREFS
331
1FA
102
}
  0
BLOCK_RECORD
  5
C7
330
1
100
AcDbSymbolTableRecord
100
AcDbBlockTableRecord
  2
*G2
340
0
102
{BLKREFS
331
1FB
102
}
  0
BLOCK_RECORD
  5
D1
330
1
100
AcDbSymbolTableRecord
100
AcDbBlockTableRecord
  2
*G3
340
0
102
{BLKREFS
331
1FC
102
}
  0
BLOCK_RECORD
  5
DB
330
1
100
AcDbSymbolTableRecord
100
AcDbBlockTableRecord
  2
*G4
340
0
102
{BLKREFS
331
1FD
102
}
  0
BLOCK_RECORD
  5
F0
330
1
100
AcDbSymbolTableRecord
100
AcDbBlockTableRecord
  2
*G5
340
0
102
{BLKREFS
331
1FE
102
}
  0
ENDTAB
  0
ENDSEC
  0
SECTION
  2
BLOCKS
  0
BLOCK
  5
D
330
A
100
AcDbEntity
  8
0
100
AcDbBlockBegin
  2
*MODEL_SPACE
 70
     0
 71
     1
 10
0.0
 20
0.0
 30
0.0
  3
*MODEL_SPACE
  1

  0
ENDBLK
  5
E
330
A
100
AcDbEntity
  8
0
100
AcDbBlockEnd
  0
BLOCK
  5
F
330
B
100
AcDbEntity
 67
     1
  8
0
100
AcDbBlockBegin
  2
*PAPER_SPACE
 70
     0
 71
     1
 10
0.0
 20
0.0
 30
0.0
  3
*PAPER_SPACE
  1

  0
ENDBLK
  5
10
330
B
100
AcDbEntity
 67
     1
  8
0
100
AcDbBlockEnd
  0
BLOCK
  5
25
330
24
100
AcDbEntity
  8
0
100
AcDbBlockBegin
  2
*G0
 70
     0
 71
     1
 10
0.0
 20
0.0
 30
0.0
  3
*G0
  1

  0
LINE
  5
27
330
24
100
AcDbEntity
  8
LEVEL0
  6
SOLID
 62
     7
370
    18
100
AcDbLine
 10
135.0000000000001
 20
110.5000000000001
 30
17.5
 11
95.00000000000009
 21
110.5000000000001
 31
17.5
  0
LINE
  5
28
330
24
100
AcDbEntity
  8
LEVEL0
  6
SOLID
 62
     7
370
    18
100
AcDbLine
 10
130.0000000000001
 20
105.5000000000001
 30
17.5
 11
130.0000000000001
 21
85.50000000000007
 31
17.5
  0
LINE
  5
29
330
24
100
AcDbEntity
  8
LEVEL0
  6
SOLID
 62
     7
370
    18
100
AcDbLine
 10
95.00000000000009
 20
110.5000000000001
 30
17.5
 11
95.00000000000009
 21
105.5000000000001
 31
17.5
  0
LINE
  5
2A
330
24
100
AcDbEntity
  8
LEVEL0
  6
SOLID
 62
     7
370
    18
100
AcDbLine
 10
130.0000000000001
 20
85.50000000000007
 30
17.5
 11
-130.0
 21
85.50000000000007
 31
17.5
  0
LINE
  5
2B
330
24
100
AcDbEntity
  8
LEVEL0
  6
SOLID
 62
     7
370
    18
100
AcDbLine
 10
-130.0
 20
80.49999999999994
 30
17.5
 11
130.0000000000001
 21
80.49999999999994
 31
17.5
  0
LINE
  5
2C
330
24
100
AcDbEntity
  8
LEVEL0
  6
SOLID
 62
     7
370
    18
100
AcDbLine
 10
-135.0000000000001
 20
110.5
 30
17.5
 11
-135.0000000000001
 21
-105.5000000000001
 31
17.5
  0
ARC
  5
2D
330
24
100
AcDbEntity
  8
LEVEL0
  6
SOLID
 62
     7
370
    18
100
AcDbCircle
 10
129.9999999999999
 20
-105.5000000000001
 30
-17.5
 40
5.0
210
0.0
220
0.0
230
-1.0
100
AcDbArc
 50
270.0
 51
0.0
  0
LINE
  5
2E
330
24
100
AcDbEntity
  8
LEVEL0
  6
SOLID
 62
     7
370
    18
100
AcDbLine
 10
-94.99999999999991
 20
110.5
 30
17.5
 11
-135.0000000000001
 21
110.5
 31
17.5
  0
LINE
  5
2F
330
24
100
AcDbEntity
  8
LEVEL0
  6
SOLID
 62
     7
370
    18
100
AcDbLine
 10
-130.0
 20
-110.5000000000001
 30
17.5
 11
130.0
 21
-110.5000000000001
 31
17.5
  0
LINE
  5
30
330
24
100
AcDbEntity
  8
LEVEL0
  6
SOLID
 62
     7
370
    18
100
AcDbLine
 10
130.0000000000001
 20
80.49999999999996
 30
17.5
 11
130.0000000000001
 21
-105.4999999999999
 31
17.5
  0
LINE
  5
31
330
24
100
AcDbEntity
  8
LEVEL0
  6
SOLID
 62
     7
370
    18
100
AcDbLine
 10
135.0000000000001
 20
-105.4999999999999
 30
17.5
 11
135.0000000000001
 21
110.5000000000001
 31
17.5
  0
LINE
  5
32
330
24
100
AcDbEntity
  8
LEVEL0
  6
SOLID
 62
     7
370
    18
100
AcDbLine
 10
-130.0
 20
85.49999999999993
 30
17.5
 11
-130.0
 21
105.4999999999999
 31
17.5
  0
LINE
  5
33
330
24
100
AcDbEntity
  8
LEVEL0
  6
SOLID
 62
     7
370
    18
100
AcDbLine
 10
130.0000000000001
 20
-105.4999999999999
 30
17.5
 11
-129.9999999999999
 21
-105.4999999999999
 31
17.5
  0
LINE
  5
34
330
24
100
AcDbEntity
  8
LEVEL0
  6
SOLID
 62
     7
370
    18
100
AcDbLine
 10
-129.9999999999999
 20
-105.5000000000001
 30
17.5
 11
-129.9999999999999
 21
80.49999999999994
 31
17.5
  0
LINE
  5
35
330
24
100
AcDbEntity
  8
LEVEL0
  6
SOLID
 62
     7
370
    18
100
AcDbLine
 10
-94.99999999999993
 20
105.5
 30
17.5
 11
-94.99999999999993
 21
110.5
 31
17.5
  0
ARC
  5
36
330
24
100
AcDbEntity
  8
LEVEL0
  6
SOLID
 62
     7
370
    18
100
AcDbCircle
 10
-130.0
 20
-105.4999999999999
 30
-17.5
 40
5.0
210
0.0
220
0.0
230
-1.0
100
AcDbArc
 50
180.0
 51
270.0
  0
LINE
  5
37
330
24
100
AcDbEntity
  8
LEVEL0
  6
SOLID
 62
     7
370
    18
100
AcDbLine
 10
95.00000000000007
 20
105.5000000000001
 30
17.5
 11
130.0000000000001
 21
105.5000000000001
 31
17.5
  0
LINE
  5
38
330
24
100
AcDbEntity
  8
LEVEL0
  6
SOLID
 62
     7
370
    18
100
AcDbLine
 10
-130.0000000000001
 20
105.4999999999999
 30
17.5
 11
-94.99999999999993
 21
105.4999999999999
 31
17.5
  0
LINE
  5
39
330
24
100
AcDbEntity
  8
LEVEL0
  6
SOLID
 62
     7
370
    18
100
AcDbLine
 10
105.0
 20
-54.99999999999984
 30
17.5
 11
79.75000000000009
 21
-54.99999999999984
 31
17.5
  0
LINE
  5
3A
330
24
100
AcDbEntity
  8
LEVEL0
  6
SOLID
 62
     7
370
    18
100
AcDbLine
 10
-0.999999999999936
 20
-54.99999999999989
 30
17.5
 11
-25.24999999999992
 21
-54.99999999999989
 31
17.5
  0
LINE
  5
3B
330
24
100
AcDbEntity
  8
LEVEL0
  6
SOLID
 62
     7
370
    18
100
AcDbLine
 10
-53.49999999999993
 20
-95.50000000000003
 30
17.5
 11
-77.74999999999991
 21
-95.50000000000003
 31
17.5
  0
LINE
  5
3C
330
24
100
AcDbEntity
  8
LEVEL0
  6
SOLID
 62
     7
370
    18
100
AcDbLine
 10
-25.24999999999993
 20
30.00000000000014
 30
17.5
 11
-0.9999999999999751
 21
30.00000000000014
 31
17.5
  0
LINE
  5
3D
330
24
100
AcDbEntity
  8
LEVEL0
  6
SOLID
 62
     7
370
    18
100
AcDbLine
 10
1.000000000000082
 20
-52.99999999999986
 30
17.5
 11
25.25000000000006
 21
-52.99999999999986
 31
17.5
  0
LINE
  5
3E
330
24
100
AcDbEntity
  8
LEVEL0
  6
SOLID
 62
     7
370
    18
100
AcDbLine
 10
-77.74999999999993
 20
30.00000000000013
 30
17.5
 11
-53.49999999999996
 21
30.00000000000013
 31
17.5
  0
LINE
  5
3F
330
24
100
AcDbEntity
  8
LEVEL0
  6
SOLID
 62
     7
370
    18
100
AcDbLine
 10
27.25000000000008
 20
-11.49999999999986
 30
17.5
 11
27.25000000000008
 21
28.00000000000011
 31
17.5
  0
LINE
  5
40
330
24
100
AcDbEntity
  8
LEVEL0
  6
SOLID
 62
     7
370
    18
100
AcDbLine
 10
1.000000000000082
 20
-52.99999999999986
 30
17.5
 11
1.000000000000082
 21
-13.49999999999991
 31
17.5
  0
LINE
  5
41
330
24
100
AcDbEntity
  8
LEVEL0
  6
SOLID
 62
     7
370
    18
100
AcDbLine
 10
25.25000000000008
 20
-95.50000000000003
 30
17.5
 11
1.000000000000082
 21
-95.50000000000003
 31
17.5
  0
LINE
  5
42
330
24
100
AcDbEntity
  8
LEVEL0
  6
SOLID
 62
     7
370
    18
100
AcDbLine
 10
-53.49999999999994
 20
-54.99999999999991
 30
17.5
 11
-77.74999999999991
 21
-54.99999999999991
 31
17.5
  0
LINE
  5
43
330
24
100
AcDbEntity
  8
LEVEL0
  6
SOLID
 62
     7
370
    18
100
AcDbLine
 10
77.75000000000006
 20
-54.99999999999984
 30
17.5
 11
53.50000000000007
 21
-54.99999999999984
 31
17.5
  0
LINE
  5
44
330
24
100
AcDbEntity
  8
LEVEL0
  6
SOLID
 62
     7
370
    18
100
AcDbLine
 10
-79.74999999999994
 20
-54.99999999999993
 30
17.5
 11
-79.74999999999994
 21
-95.50000000000003
 31
17.5
  0
LINE
  5
45
330
24
100
AcDbEntity
  8
LEVEL0
  6
SOLID
 62
     7
370
    18
100
AcDbLine
 10
-77.74999999999991
 20
-52.99999999999987
 30
17.5
 11
-77.74999999999991
 21
-13.49999999999996
 31
17.5
  0
LINE
  5
46
330
24
100
AcDbEntity
  8
LEVEL0
  6
SOLID
 62
     7
370
    18
100
AcDbLine
 10
51.50000000000006
 20
-54.99999999999986
 30
17.5
 11
27.25000000000008
 21
-54.99999999999986
 31
17.5
  0
LINE
  5
47
330
24
100
AcDbEntity
  8
LEVEL0
  6
SOLID
 62
     7
370
    18
100
AcDbLine
 10
25.25000000000006
 20
-54.99999999999986
 30
17.5
 11
25.25000000000006
 21
-95.50000000000003
 31
17.5
  0
LINE
  5
48
330
24
100
AcDbEntity
  8
LEVEL0
  6
SOLID
 62
     7
370
    18
100
AcDbLine
 10
-27.24999999999995
 20
-13.49999999999991
 30
17.5
 11
-51.49999999999991
 21
-13.49999999999991
 31
17.5
  0
LINE
  5
49
330
24
100
AcDbEntity
  8
LEVEL0
  6
SOLID
 62
     7
370
    18
100
AcDbLine
 10
-105.0
 20
30.00000000000013
 30
17.5
 11
-79.74999999999996
 21
30.00000000000013
 31
17.5
  0
LINE
  5
4A
330
24
100
AcDbEntity
  8
LEVEL0
  6
SOLID
 62
     7
370
    18
100
AcDbLine
 10
-79.74999999999997
 20
28.00000000000007
 30
17.5
 11
-79.74999999999997
 21
-11.49999999999988
 31
17.5
  0
LINE
  5
4B
330
24
100
AcDbEntity
  8
LEVEL0
  6
SOLID
 62
     7
370
    18
100
AcDbLine
 10
1.000000000000082
 20
-11.49999999999986
 30
17.5
 11
1.000000000000082
 21
28.00000000000009
 31
17.5
  0
LINE
  5
4C
330
24
100
AcDbEntity
  8
LEVEL0
  6
SOLID
 62
     7
370
    18
100
AcDbLine
 10
1.00000000000008
 20
70.50000000000003
 30
17.5
 11
25.25000000000001
 21
70.50000000000003
 31
17.5
  0
LINE
  5
4D
330
24
100
AcDbEntity
  8
LEVEL0
  6
SOLID
 62
     7
370
    18
100
AcDbLine
 10
-53.49999999999996
 20
-13.49999999999991
 30
17.5
 11
-53.49999999999996
 21
-52.99999999999986
 31
17.5
  0
LINE
  5
4E
330
24
100
AcDbEntity
  8
LEVEL0
  6
SOLID
 62
     7
370
    18
100
AcDbLine
 10
79.75000000000007
 20
-11.49999999999984
 30
17.5
 11
105.0
 21
-11.49999999999984
 31
17.5
  0
LINE
  5
4F
330
24
100
AcDbEntity
  8
LEVEL0
  6
SOLID
 62
     7
370
    18
100
AcDbLine
 10
27.25000000000008
 20
-95.50000000000003
 30
17.5
 11
27.25000000000008
 21
-54.99999999999986
 31
17.5
  0
LINE
  5
50
330
24
100
AcDbEntity
  8
LEVEL0
  6
SOLID
 62
     7
370
    18
100
AcDbLine
 10
-25.24999999999992
 20
70.50000000000003
 30
17.5
 11
-0.9999999999999822
 21
70.50000000000003
 31
17.5
  0
LINE
  5
51
330
24
100
AcDbEntity
  8
LEVEL0
  6
SOLID
 62
     7
370
    18
100
AcDbLine
 10
51.50000000000004
 20
-13.49999999999986
 30
17.5
 11
27.25000000000008
 21
-13.49999999999986
 31
17.5
  0
LINE
  5
52
330
24
100
AcDbEntity
  8
LEVEL0
  6
SOLID
 62
     7
370
    18
100
AcDbLine
 10
105.0
 20
-95.49999999999997
 30
17.5
 11
79.75000000000009
 21
-95.49999999999997
 31
17.5
  0
LINE
  5
53
330
24
100
AcDbEntity
  8
LEVEL0
  6
SOLID
 62
     7
370
    18
100
AcDbLine
 10
77.75000000000001
 20
70.50000000000001
 30
17.5
 11
77.75000000000001
 21
30.00000000000016
 31
17.5
  0
LINE
  5
54
330
24
100
AcDbEntity
  8
LEVEL0
  6
SOLID
 62
     7
370
    18
100
AcDbLine
 10
-0.9999999999999218
 20
-95.50000000000003
 30
17.5
 11
-25.24999999999992
 21
-95.50000000000003
 31
17.5
  0
LINE
  5
55
330
24
100
AcDbEntity
  8
LEVEL0
  6
SOLID
 62
     7
370
    18
100
AcDbLine
 10
105.0
 20
-54.99999999999984
 30
17.5
 11
105.0
 21
-95.49999999999997
 31
17.5
  0
LINE
  5
56
330
24
100
AcDbEntity
  8
LEVEL0
  6
SOLID
 62
     7
370
    18
100
AcDbLine
 10
77.75000000000009
 20
-95.50000000000003
 30
17.5
 11
53.50000000000007
 21
-95.50000000000003
 31
17.5
  0
LINE
  5
57
330
24
100
AcDbEntity
  8
LEVEL0
  6
SOLID
 62
     7
370
    18
100
AcDbLine
 10
-25.24999999999993
 20
-52.99999999999986
 30
17.5
 11
-25.24999999999993
 21
-13.49999999999991
 31
17.5
  0
LINE
  5
58
330
24
100
AcDbEntity
  8
LEVEL0
  6
SOLID
 62
     7
370
    18
100
AcDbLine
 10
51.50000000000007
 20
-95.50000000000003
 30
17.5
 11
27.25000000000008
 21
-95.50000000000003
 31
17.5
  0
LINE
  5
59
330
24
100
AcDbEntity
  8
LEVEL0
  6
SOLID
 62
     7
370
    18
100
AcDbLine
 10
1.000000000000083
 20
30.00000000000014
 30
17.5
 11
1.000000000000083
 21
70.50000000000003
 31
17.5
  0
LINE
  5
5A
330
24
100
AcDbEntity
  8
LEVEL0
  6
SOLID
 62
     7
370
    18
100
AcDbLine
 10
53.50000000000007
 20
70.50000000000003
 30
17.5
 11
77.75000000000001
 21
70.50000000000003
 31
17.5
  0
LINE
  5
5B
330
24
100
AcDbEntity
  8
LEVEL0
  6
SOLID
 62
     7
370
    18
100
AcDbLine
 10
51.50000000000003
 20
28.00000000000014
 30
17.5
 11
27.25000000000008
 21
28.00000000000014
 31
17.5
  0
LINE
  5
5C
330
24
100
AcDbEntity
  8
LEVEL0
  6
SOLID
 62
     7
370
    18
100
AcDbLine
 10
105.0
 20
28.00000000000016
 30
17.5
 11
79.75000000000009
 21
28.00000000000016
 31
17.5
  0
LINE
  5
5D
330
24
100
AcDbEntity
  8
LEVEL0
  6
SOLID
 62
     7
370
    18
100
AcDbLine
 10
105.0
 20
70.50000000000004
 30
17.5
 11
105.0
 21
30.00000000000016
 31
17.5
  0
LINE
  5
5E
330
24
100
AcDbEntity
  8
LEVEL0
  6
SOLID
 62
     7
370
    18
100
AcDbLine
 10
-79.74999999999994
 20
-54.99999999999993
 30
17.5
 11
-105.0
 21
-54.99999999999993
 31
17.5
  0
LINE
  5
5F
330
24
100
AcDbEntity
  8
LEVEL0
  6
SOLID
 62
     7
370
    18
100
AcDbLine
 10
53.50000000000009
 20
30.00000000000014
 30
17.5
 11
77.75000000000003
 21
30.00000000000014
 31
17.5
  0
LINE
  5
60
330
24
100
AcDbEntity
  8
LEVEL0
  6
SOLID
 62
     7
370
    18
100
AcDbLine
 10
77.75000000000004
 20
-13.49999999999984
 30
17.5
 11
53.50000000000009
 21
-13.49999999999984
 31
17.5
  0
LINE
  5
61
330
24
100
AcDbEntity
  8
LEVEL0
  6
SOLID
 62
     7
370
    18
100
AcDbLine
 10
-77.74999999999991
 20
-11.49999999999988
 30
17.5
 11
-77.74999999999991
 21
28.00000000000007
 31
17.5
  0
LINE
  5
62
330
24
100
AcDbEntity
  8
LEVEL0
  6
SOLID
 62
     7
370
    18
100
AcDbLine
 10
1.000000000000082
 20
-95.50000000000003
 30
17.5
 11
1.000000000000082
 21
-54.99999999999989
 31
17.5
  0
LINE
  5
63
330
24
100
AcDbEntity
  8
LEVEL0
  6
SOLID
 62
     7
370
    18
100
AcDbLine
 10
-27.24999999999994
 20
-54.99999999999991
 30
17.5
 11
-51.49999999999993
 21
-54.99999999999991
 31
17.5
  0
LINE
  5
64
330
24
100
AcDbEntity
  8
LEVEL0
  6
SOLID
 62
     7
370
    18
100
AcDbLine
 10
79.75000000000009
 20
70.50000000000001
 30
17.5
 11
105.0
 21
70.50000000000001
 31
17.5
  0
LINE
  5
65
330
24
100
AcDbEntity
  8
LEVEL0
  6
SOLID
 62
     7
370
    18
100
AcDbLine
 10
27.25000000000008
 20
-52.99999999999986
 30
17.5
 11
51.50000000000006
 21
-52.99999999999986
 31
17.5
  0
LINE
  5
66
330
24
100
AcDbEntity
  8
LEVEL0
  6
SOLID
 62
     7
370
    18
100
AcDbLine
 10
53.50000000000009
 20
30.00000000000014
 30
17.5
 11
53.50000000000009
 21
70.50000000000003
 31
17.5
  0
LINE
  5
67
330
24
100
AcDbEntity
  8
LEVEL0
  6
SOLID
 62
     7
370
    18
100
AcDbLine
 10
-79.74999999999997
 20
28.00000000000007
 30
17.5
 11
-105.0
 21
28.00000000000007
 31
17.5
  0
LINE
  5
68
330
24
100
AcDbEntity
  8
LEVEL0
  6
SOLID
 62
     7
370
    18
100
AcDbLine
 10
-51.49999999999993
 20
-11.49999999999985
 30
17.5
 11
-27.24999999999997
 21
-11.49999999999985
 31
17.5
  0
LINE
  5
69
330
24
100
AcDbEntity
  8
LEVEL0
  6
SOLID
 62
     7
370
    18
100
AcDbLine
 10
-105.0
 20
70.49999999999999
 30
17.5
 11
-79.74999999999999
 21
70.49999999999999
 31
17.5
  0
LINE
  5
6A
330
24
100
AcDbEntity
  8
LEVEL0
  6
SOLID
 62
     7
370
    18
100
AcDbLine
 10
-0.999999999999968
 20
28.00000000000011
 30
17.5
 11
-0.999999999999968
 21
-11.49999999999986
 31
17.5
  0
LINE
  5
6B
330
24
100
AcDbEntity
  8
LEVEL0
  6
SOLID
 62
     7
370
    18
100
AcDbLine
 10
-51.49999999999993
 20
70.50000000000003
 30
17.5
 11
-27.24999999999999
 21
70.50000000000003
 31
17.5
  0
LINE
  5
6C
330
24
100
AcDbEntity
  8
LEVEL0
  6
SOLID
 62
     7
370
    18
100
AcDbLine
 10
-0.9999999999999822
 20
70.50000000000003
 30
17.5
 11
-0.9999999999999822
 21
30.00000000000014
 31
17.5
  0
LINE
  5
6D
330
24
100
AcDbEntity
  8
LEVEL0
  6
SOLID
 62
     7
370
    18
100
AcDbLine
 10
77.75000000000003
 20
28.00000000000013
 30
17.5
 11
77.75000000000003
 21
-11.49999999999984
 31
17.5
  0
LINE
  5
6E
330
24
100
AcDbEntity
  8
LEVEL0
  6
SOLID
 62
     7
370
    18
100
AcDbLine
 10
79.75000000000009
 20
-52.99999999999984
 30
17.5
 11
105.0
 21
-52.99999999999984
 31
17.5
  0
LINE
  5
6F
330
24
100
AcDbEntity
  8
LEVEL0
  6
SOLID
 62
     7
370
    18
100
AcDbLine
 10
-79.74999999999999
 20
70.50000000000004
 30
17.5
 11
-79.74999999999999
 21
30.00000000000013
 31
17.5
  0
LINE
  5
70
330
24
100
AcDbEntity
  8
LEVEL0
  6
SOLID
 62
     7
370
    18
100
AcDbLine
 10
27.25000000000008
 20
-11.49999999999986
 30
17.5
 11
51.50000000000004
 21
-11.49999999999986
 31
17.5
  0
LINE
  5
71
330
24
100
AcDbEntity
  8
LEVEL0
  6
SOLID
 62
     7
370
    18
100
AcDbLine
 10
105.0
 20
-13.49999999999984
 30
17.5
 11
105.0
 21
-52.99999999999984
 31
17.5
  0
LINE
  5
72
330
24
100
AcDbEntity
  8
LEVEL0
  6
SOLID
 62
     7
370
    18
100
AcDbLine
 10
51.50000000000003
 20
28.00000000000014
 30
17.5
 11
51.50000000000003
 21
-11.49999999999986
 31
17.5
  0
LINE
  5
73
330
24
100
AcDbEntity
  8
LEVEL0
  6
SOLID
 62
     7
370
    18
100
AcDbLine
 10
-25.24999999999991
 20
-11.49999999999986
 30
17.5
 11
-25.24999999999991
 21
28.00000000000009
 31
17.5
  0
LINE
  5
74
330
24
100
AcDbEntity
  8
LEVEL0
  6
SOLID
 62
     7
370
    18
100
AcDbLine
 10
-53.49999999999996
 20
-13.49999999999991
 30
17.5
 11
-77.74999999999993
 21
-13.49999999999991
 31
17.5
  0
LINE
  5
75
330
24
100
AcDbEntity
  8
LEVEL0
  6
SOLID
 62
     7
370
    18
100
AcDbLine
 10
53.50000000000007
 20
-52.99999999999983
 30
17.5
 11
77.75000000000006
 21
-52.99999999999983
 31
17.5
  0
LINE
  5
76
330
24
100
AcDbEntity
  8
LEVEL0
  6
SOLID
 62
     7
370
    18
100
AcDbLine
 10
-0.999999999999968
 20
28.00000000000011
 30
17.5
 11
-25.24999999999992
 21
28.00000000000011
 31
17.5
  0
LINE
  5
77
330
24
100
AcDbEntity
  8
LEVEL0
  6
SOLID
 62
     7
370
    18
100
AcDbLine
 10
-27.24999999999993
 20
-95.50000000000003
 30
17.5
 11
-51.49999999999993
 21
-95.50000000000003
 31
17.5
  0
LINE
  5
78
330
24
100
AcDbEntity
  8
LEVEL0
  6
SOLID
 62
     7
370
    18
100
AcDbLine
 10
-105.0
 20
30.00000000000013
 30
17.5
 11
-105.0
 21
70.49999999999999
 31
17.5
  0
LINE
  5
79
330
24
100
AcDbEntity
  8
LEVEL0
  6
SOLID
 62
     7
370
    18
100
AcDbLine
 10
1.000000000000082
 20
-11.49999999999986
 30
17.5
 11
25.25000000000005
 21
-11.49999999999986
 31
17.5
  0
LINE
  5
7A
330
24
100
AcDbEntity
  8
LEVEL0
  6
SOLID
 62
     7
370
    18
100
AcDbLine
 10
-25.24999999999993
 20
30.00000000000014
 30
17.5
 11
-25.24999999999993
 21
70.50000000000003
 31
17.5
  0
LINE
  5
7B
330
24
100
AcDbEntity
  8
LEVEL0
  6
SOLID
 62
     7
370
    18
100
AcDbLine
 10
25.25000000000002
 20
70.50000000000003
 30
17.5
 11
25.25000000000002
 21
30.00000000000014
 31
17.5
  0
LINE
  5
7C
330
24
100
AcDbEntity
  8
LEVEL0
  6
SOLID
 62
     7
370
    18
100
AcDbLine
 10
77.75000000000004
 20
-13.49999999999984
 30
17.5
 11
77.75000000000004
 21
-52.99999999999984
 31
17.5
  0
LINE
  5
7D
330
24
100
AcDbEntity
  8
LEVEL0
  6
SOLID
 62
     7
370
    18
100
AcDbLine
 10
53.50000000000007
 20
-11.49999999999986
 30
17.5
 11
53.50000000000007
 21
28.00000000000014
 31
17.5
  0
LINE
  5
7E
330
24
100
AcDbEntity
  8
LEVEL0
  6
SOLID
 62
     7
370
    18
100
AcDbLine
 10
27.25000000000008
 20
-52.99999999999986
 30
17.5
 11
27.25000000000008
 21
-13.49999999999989
 31
17.5
  0
LINE
  5
7F
330
24
100
AcDbEntity
  8
LEVEL0
  6
SOLID
 62
     7
370
    18
100
AcDbLine
 10
-27.24999999999995
 20
-13.49999999999991
 30
17.5
 11
-27.24999999999995
 21
-52.99999999999986
 31
17.5
  0
LINE
  5
80
330
24
100
AcDbEntity
  8
LEVEL0
  6
SOLID
 62
     7
370
    18
100
AcDbLine
 10
-51.49999999999993
 20
30.00000000000015
 30
17.5
 11
-51.49999999999993
 21
70.50000000000003
 31
17.5
  0
LINE
  5
81
330
24
100
AcDbEntity
  8
LEVEL0
  6
SOLID
 62
     7
370
    18
100
AcDbLine
 10
79.75000000000009
 20
-95.50000000000003
 30
17.5
 11
79.75000000000009
 21
-54.99999999999984
 31
17.5
  0
LINE
  5
82
330
24
100
AcDbEntity
  8
LEVEL0
  6
SOLID
 62
     7
370
    18
100
AcDbLine
 10
-0.9999999999999503
 20
-13.49999999999989
 30
17.5
 11
-25.24999999999992
 21
-13.49999999999989
 31
17.5
  0
LINE
  5
83
330
24
100
AcDbEntity
  8
LEVEL0
  6
SOLID
 62
     7
370
    18
100
AcDbLine
 10
-53.49999999999997
 20
28.00000000000009
 30
17.5
 11
-53.49999999999997
 21
-11.49999999999985
 31
17.5
  0
LINE
  5
84
330
24
100
AcDbEntity
  8
LEVEL0
  6
SOLID
 62
     7
370
    18
100
AcDbLine
 10
79.75000000000009
 20
-52.99999999999984
 30
17.5
 11
79.75000000000009
 21
-13.49999999999986
 31
17.5
  0
LINE
  5
85
330
24
100
AcDbEntity
  8
LEVEL0
  6
SOLID
 62
     7
370
    18
100
AcDbLine
 10
-51.49999999999993
 20
30.00000000000015
 30
17.5
 11
-27.24999999999996
 21
30.00000000000015
 31
17.5
  0
LINE
  5
86
330
24
100
AcDbEntity
  8
LEVEL0
  6
SOLID
 62
     7
370
    18
100
AcDbLine
 10
-25.24999999999991
 20
-11.49999999999986
 30
17.5
 11
-0.9999999999999538
 21
-11.49999999999986
 31
17.5
  0
LINE
  5
87
330
24
100
AcDbEntity
  8
LEVEL0
  6
SOLID
 62
     7
370
    18
100
AcDbLine
 10
-53.49999999999997
 20
28.00000000000009
 30
17.5
 11
-77.74999999999991
 21
28.00000000000009
 31
17.5
  0
LINE
  5
88
330
24
100
AcDbEntity
  8
LEVEL0
  6
SOLID
 62
     7
370
    18
100
AcDbLine
 10
-77.74999999999991
 20
-52.99999999999987
 30
17.5
 11
-53.49999999999994
 21
-52.99999999999987
 31
17.5
  0
LINE
  5
89
330
24
100
AcDbEntity
  8
LEVEL0
  6
SOLID
 62
     7
370
    18
100
AcDbLine
 10
27.25000000000008
 20
30.00000000000014
 30
17.5
 11
51.50000000000003
 21
30.00000000000014
 31
17.5
  0
LINE
  5
8A
330
24
100
AcDbEntity
  8
LEVEL0
  6
SOLID
 62
     7
370
    18
100
AcDbLine
 10
53.50000000000007
 20
-11.49999999999986
 30
17.5
 11
77.75000000000004
 21
-11.49999999999986
 31
17.5
  0
LINE
  5
8B
330
24
100
AcDbEntity
  8
LEVEL0
  6
SOLID
 62
     7
370
    18
100
AcDbLine
 10
-27.24999999999998
 20
70.50000000000003
 30
17.5
 11
-27.24999999999998
 21
30.00000000000014
 31
17.5
  0
LINE
  5
8C
330
24
100
AcDbEntity
  8
LEVEL0
  6
SOLID
 62
     7
370
    18
100
AcDbLine
 10
-51.49999999999993
 20
-52.99999999999986
 30
17.5
 11
-27.24999999999994
 21
-52.99999999999986
 31
17.5
  0
LINE
  5
8D
330
24
100
AcDbEntity
  8
LEVEL0
  6
SOLID
 62
     7
370
    18
100
AcDbLine
 10
-105.0
 20
-52.99999999999987
 30
17.5
 11
-105.0
 21
-13.49999999999996
 31
17.5
  0
LINE
  5
8E
330
24
100
AcDbEntity
  8
LEVEL0
  6
SOLID
 62
     7
370
    18
100
AcDbLine
 10
-27.24999999999998
 20
28.00000000000009
 30
17.5
 11
-51.49999999999991
 21
28.00000000000009
 31
17.5
  0
LINE
  5
8F
330
24
100
AcDbEntity
  8
LEVEL0
  6
SOLID
 62
     7
370
    18
100
AcDbLine
 10
-0.999999999999936
 20
-54.99999999999989
 30
17.5
 11
-0.999999999999936
 21
-95.50000000000003
 31
17.5
  0
LINE
  5
90
330
24
100
AcDbEntity
  8
LEVEL0
  6
SOLID
 62
     7
370
    18
100
AcDbLine
 10
51.50000000000001
 20
70.50000000000003
 30
17.5
 11
51.50000000000001
 21
30.00000000000016
 31
17.5
  0
LINE
  5
91
330
24
100
AcDbEntity
  8
LEVEL0
  6
SOLID
 62
     7
370
    18
100
AcDbLine
 10
51.50000000000004
 20
-13.49999999999986
 30
17.5
 11
51.50000000000004
 21
-52.99999999999986
 31
17.5
  0
LINE
  5
92
330
24
100
AcDbEntity
  8
LEVEL0
  6
SOLID
 62
     7
370
    18
100
AcDbLine
 10
-25.24999999999993
 20
-52.99999999999986
 30
17.5
 11
-0.999999999999936
 21
-52.99999999999986
 31
17.5
  0
LINE
  5
93
330
24
100
AcDbEntity
  8
LEVEL0
  6
SOLID
 62
     7
370
    18
100
AcDbLine
 10
77.75000000000006
 20
-54.99999999999984
 30
17.5
 11
77.75000000000006
 21
-95.50000000000003
 31
17.5
  0
LINE
  5
94
330
24
100
AcDbEntity
  8
LEVEL0
  6
SOLID
 62
     7
370
    18
100
AcDbLine
 10
25.25000000000003
 20
28.00000000000011
 30
17.5
 11
1.000000000000082
 21
28.00000000000011
 31
17.5
  0
LINE
  5
95
330
24
100
AcDbEntity
  8
LEVEL0
  6
SOLID
 62
     7
370
    18
100
AcDbLine
 10
53.50000000000007
 20
-95.50000000000003
 30
17.5
 11
53.50000000000007
 21
-54.99999999999986
 31
17.5
  0
LINE
  5
96
330
24
100
AcDbEntity
  8
LEVEL0
  6
SOLID
 62
     7
370
    18
100
AcDbLine
 10
-79.74999999999996
 20
-13.49999999999994
 30
17.5
 11
-105.0
 21
-13.49999999999994
 31
17.5
  0
LINE
  5
97
330
24
100
AcDbEntity
  8
LEVEL0
  6
SOLID
 62
     7
370
    18
100
AcDbLine
 10
-53.49999999999999
 20
70.50000000000003
 30
17.5
 11
-53.49999999999999
 21
30.00000000000015
 31
17.5
  0
LINE
  5
98
330
24
100
AcDbEntity
  8
LEVEL0
  6
SOLID
 62
     7
370
    18
100
AcDbLine
 10
-77.74999999999991
 20
-95.50000000000003
 30
17.5
 11
-77.74999999999991
 21
-54.99999999999993
 31
17.5
  0
LINE
  5
99
330
24
100
AcDbEntity
  8
LEVEL0
  6
SOLID
 62
     7
370
    18
100
AcDbLine
 10
-105.0
 20
-52.99999999999987
 30
17.5
 11
-79.74999999999994
 21
-52.99999999999987
 31
17.5
  0
LINE
  5
9A
330
24
100
AcDbEntity
  8
LEVEL0
  6
SOLID
 62
     7
370
    18
100
AcDbLine
 10
-105.0
 20
-11.49999999999987
 30
17.5
 11
-79.74999999999997
 21
-11.49999999999987
 31
17.5
  0
LINE
  5
9B
330
24
100
AcDbEntity
  8
LEVEL0
  6
SOLID
 62
     7
370
    18
100
AcDbLine
 10
-25.24999999999992
 20
-95.50000000000003
 30
17.5
 11
-25.24999999999992
 21
-54.99999999999991
 31
17.5
  0
LINE
  5
9C
330
24
100
AcDbEntity
  8
LEVEL0
  6
SOLID
 62
     7
370
    18
100
AcDbLine
 10
27.25000000000008
 20
70.50000000000003
 30
17.5
 11
51.50000000000001
 21
70.50000000000003
 31
17.5
  0
LINE
  5
9D
330
24
100
AcDbEntity
  8
LEVEL0
  6
SOLID
 62
     7
370
    18
100
AcDbLine
 10
-77.74999999999991
 20
70.50000000000004
 30
17.5
 11
-53.49999999999999
 21
70.50000000000004
 31
17.5
  0
LINE
  5
9E
330
24
100
AcDbEntity
  8
LEVEL0
  6
SOLID
 62
     7
370
    18
100
AcDbLine
 10
105.0
 20
28.00000000000016
 30
17.5
 11
105.0
 21
-11.49999999999984
 31
17.5
  0
LINE
  5
9F
330
24
100
AcDbEntity
  8
LEVEL0
  6
SOLID
 62
     7
370
    18
100
AcDbLine
 10
-77.74999999999991
 20
-11.49999999999988
 30
17.5
 11
-53.49999999999996
 21
-11.49999999999988
 31
17.5
  0
LINE
  5
A0
330
24
100
AcDbEntity
  8
LEVEL0
  6
SOLID
 62
     7
370
    18
100
AcDbLine
 10
-51.49999999999993
 20
-52.99999999999986
 30
17.5
 11
-51.49999999999993
 21
-13.49999999999991
 31
17.5
  0
LINE
  5
A1
330
24
100
AcDbEntity
  8
LEVEL0
  6
SOLID
 62
     7
370
    18
100
AcDbLine
 10
-27.24999999999994
 20
-54.99999999999991
 30
17.5
 11
-27.24999999999994
 21
-95.50000000000003
 31
17.5
  0
LINE
  5
A2
330
24
100
AcDbEntity
  8
LEVEL0
  6
SOLID
 62
     7
370
    18
100
AcDbLine
 10
-51.49999999999993
 20
-95.50000000000003
 30
17.5
 11
-51.49999999999993
 21
-54.99999999999991
 31
17.5
  0
LINE
  5
A3
330
24
100
AcDbEntity
  8
LEVEL0
  6
SOLID
 62
     7
370
    18
100
AcDbLine
 10
25.25000000000003
 20
28.00000000000011
 30
17.5
 11
25.25000000000003
 21
-11.49999999999986
 31
17.5
  0
LINE
  5
A4
330
24
100
AcDbEntity
  8
LEVEL0
  6
SOLID
 62
     7
370
    18
100
AcDbLine
 10
51.50000000000006
 20
-54.99999999999986
 30
17.5
 11
51.50000000000006
 21
-95.50000000000003
 31
17.5
  0
LINE
  5
A5
330
24
100
AcDbEntity
  8
LEVEL0
  6
SOLID
 62
     7
370
    18
100
AcDbLine
 10
27.25000000000008
 20
30.00000000000014
 30
17.5
 11
27.25000000000008
 21
70.50000000000003
 31
17.5
  0
LINE
  5
A6
330
24
100
AcDbEntity
  8
LEVEL0
  6
SOLID
 62
     7
370
    18
100
AcDbLine
 10
-27.24999999999998
 20
28.00000000000009
 30
17.5
 11
-27.24999999999998
 21
-11.49999999999986
 31
17.5
  0
LINE
  5
A7
330
24
100
AcDbEntity
  8
LEVEL0
  6
SOLID
 62
     7
370
    18
100
AcDbLine
 10
-79.74999999999996
 20
-13.49999999999994
 30
17.5
 11
-79.74999999999996
 21
-52.99999999999984
 31
17.5
  0
LINE
  5
A8
330
24
100
AcDbEntity
  8
LEVEL0
  6
SOLID
 62
     7
370
    18
100
AcDbLine
 10
1.000000000000083
 20
30.00000000000014
 30
17.5
 11
25.25000000000004
 21
30.00000000000014
 31
17.5
  0
LINE
  5
A9
330
24
100
AcDbEntity
  8
LEVEL0
  6
SOLID
 62
     7
370
    18
100
AcDbLine
 10
79.75000000000009
 20
30.00000000000016
 30
17.5
 11
79.75000000000009
 21
70.50000000000001
 31
17.5
  0
LINE
  5
AA
330
24
100
AcDbEntity
  8
LEVEL0
  6
SOLID
 62
     7
370
    18
100
AcDbLine
 10
-53.49999999999994
 20
-54.99999999999991
 30
17.5
 11
-53.49999999999994
 21
-95.50000000000003
 31
17.5
  0
LINE
  5
AB
330
24
100
AcDbEntity
  8
LEVEL0
  6
SOLID
 62
     7
370
    18
100
AcDbLine
 10
79.75000000000009
 20
30.00000000000016
 30
17.5
 11
105.0
 21
30.00000000000016
 31
17.5
  0
LINE
  5
AC
330
24
100
AcDbEntity
  8
LEVEL0
  6
SOLID
 62
     7
370
    18
100
AcDbLine
 10
25.25000000000005
 20
-13.49999999999986
 30
17.5
 11
1.000000000000082
 21
-13.49999999999986
 31
17.5
  0
LINE
  5
AD
330
24
100
AcDbEntity
  8
LEVEL0
  6
SOLID
 62
     7
370
    18
100
AcDbLine
 10
-51.49999999999993
 20
-11.49999999999985
 30
17.5
 11
-51.49999999999993
 21
28.00000000000009
 31
17.5
  0
LINE
  5
AE
330
24
100
AcDbEntity
  8
LEVEL0
  6
SOLID
 62
     7
370
    18
100
AcDbLine
 10
-105.0
 20
-11.49999999999987
 30
17.5
 11
-105.0
 21
28.00000000000004
 31
17.5
  0
LINE
  5
AF
330
24
100
AcDbEntity
  8
LEVEL0
  6
SOLID
 62
     7
370
    18
100
AcDbLine
 10
-0.9999999999999503
 20
-13.49999999999989
 30
17.5
 11
-0.9999999999999503
 21
-52.99999999999986
 31
17.5
  0
LINE
  5
B0
330
24
100
AcDbEntity
  8
LEVEL0
  6
SOLID
 62
     7
370
    18
100
AcDbLine
 10
-79.74999999999991
 20
-95.50000000000003
 30
17.5
 11
-105.0
 21
-95.50000000000003
 31
17.5
  0
LINE
  5
B1
330
24
100
AcDbEntity
  8
LEVEL0
  6
SOLID
 62
     7
370
    18
100
AcDbLine
 10
79.75000000000007
 20
-11.49999999999984
 30
17.5
 11
79.75000000000007
 21
28.00000000000013
 31
17.5
  0
LINE
  5
B2
330
24
100
AcDbEntity
  8
LEVEL0
  6
SOLID
 62
     7
370
    18
100
AcDbLine
 10
105.0
 20
-13.49999999999984
 30
17.5
 11
79.75000000000007
 21
-13.49999999999984
 31
17.5
  0
LINE
  5
B3
330
24
100
AcDbEntity
  8
LEVEL0
  6
SOLID
 62
     7
370
    18
100
AcDbLine
 10
-77.74999999999993
 20
30.00000000000013
 30
17.5
 11
-77.74999999999993
 21
70.50000000000004
 31
17.5
  0
LINE
  5
B4
330
24
100
AcDbEntity
  8
LEVEL0
  6
SOLID
 62
     7
370
    18
100
AcDbLine
 10
25.25000000000006
 20
-54.99999999999986
 30
17.5
 11
1.000000000000082
 21
-54.99999999999986
 31
17.5
  0
LINE
  5
B5
330
24
100
AcDbEntity
  8
LEVEL0
  6
SOLID
 62
     7
370
    18
100
AcDbLine
 10
53.50000000000007
 20
-52.99999999999983
 30
17.5
 11
53.50000000000007
 21
-13.49999999999986
 31
17.5
  0
LINE
  5
B6
330
24
100
AcDbEntity
  8
LEVEL0
  6
SOLID
 62
     7
370
    18
100
AcDbLine
 10
-105.0
 20
-95.50000000000014
 30
17.5
 11
-105.0
 21
-54.99999999999996
 31
17.5
  0
LINE
  5
B7
330
24
100
AcDbEntity
  8
LEVEL0
  6
SOLID
 62
     7
370
    18
100
AcDbLine
 10
77.75000000000003
 20
28.00000000000013
 30
17.5
 11
53.50000000000009
 21
28.00000000000013
 31
17.5
  0
LINE
  5
B8
330
24
100
AcDbEntity
  8
LEVEL0
  6
SOLID
 62
     7
370
    18
100
AcDbLine
 10
25.25000000000005
 20
-13.49999999999986
 30
17.5
 11
25.25000000000005
 21
-52.99999999999986
 31
17.5
  0
ENDBLK
  5
B9
330
24
100
AcDbEntity
  8
0
100
AcDbBlockEnd
  0
BLOCK
  5
BB
330
BA
100
AcDbEntity
  8
0
100
AcDbBlockBegin
  2
*G1
 70
     0
 71
     1
 10
0.0
 20
0.0
 30
0.0
  3
*G1
  1

  0
LINE
  5
BC
330
BA
100
AcDbEntity
  8
LEVEL0
  6
SOLID
 62
     7
370
    18
100
AcDbLine
 10
-77.30039651408566
 20
0.0
 30
106.0275000000001
 11
-77.30039651408566
 21
-35.0
 31
106.0275000000001
  0
ARC
  5
BD
330
BA
100
AcDbEntity
  8
LEVEL0
  6
SOLID
 62
     7
370
    18
100
AcDbCircle
 10
-72.30039651408566
 20
106.0275000000001
 30
0.0
 40
5.0
210
0.0
220
-1.0
230
0.0
100
AcDbArc
 50
90.00000000000001
 51
180.0
  0
LINE
  5
BE
330
BA
100
AcDbEntity
  8
LEVEL0
  6
SOLID
 62
     7
370
    18
100
AcDbLine
 10
192.6996034859143
 20
-35.0
 30
106.0274999999999
 11
192.6996034859143
 21
0.0
 31
106.0274999999999
  0
LINE
  5
BF
330
BA
100
AcDbEntity
  8
LEVEL0
  6
SOLID
 62
     7
370
    18
100
AcDbLine
 10
-72.30039651408569
 20
0.0
 30
111.0275
 11
187.6996034859143
 21
0.0
 31
111.0275
  0
LINE
  5
C0
330
BA
100
AcDbEntity
  8
LEVEL0
  6
SOLID
 62
     7
370
    18
100
AcDbLine
 10
-72.30039651408569
 20
-35.0
 30
111.0275
 11
187.6996034859143
 21
-35.0
 31
111.0275
  0
ARC
  5
C1
330
BA
100
AcDbEntity
  8
LEVEL0
  6
SOLID
 62
     7
370
    18
100
AcDbCircle
 10
72.30039651408566
 20
106.0275000000001
 30
-35.0
 40
5.0
210
0.0
220
1.0
230
0.0
100
AcDbArc
 50
0.0
 51
89.99999999999999
  0
ARC
  5
C2
330
BA
100
AcDbEntity
  8
LEVEL0
  6
SOLID
 62
     7
370
    18
100
AcDbCircle
 10
187.6996034859144
 20
106.0274999999999
 30
0.0
 40
5.0
210
0.0
220
-1.0
230
0.0
100
AcDbArc
 50
0.0000000000000064
 51
90.0
  0
ARC
  5
C3
330
BA
100
AcDbEntity
  8
LEVEL0
  6
SOLID
 62
     7
370
    18
100
AcDbCircle
 10
-187.6996034859144
 20
106.0274999999999
 30
-35.0
 40
5.0
210
0.0
220
1.0
230
0.0
100
AcDbArc
 50
90.00000000000001
 51
180.0
  0
LINE
  5
C4
330
BA
100
AcDbEntity
  8
LEVEL0
  6
SOLID
 62
   196
370
     9
100
AcDbLine
 10
-72.30039651408569
 20
-35.0
 30
111.0275
 11
-72.30039651408569
 21
0.0
 31
111.0275
  0
LINE
  5
C5
330
BA
100
AcDbEntity
  8
LEVEL0
  6
SOLID
 62
   196
370
     9
100
AcDbLine
 10
187.6996034859143
 20
0.0
 30
111.0274999999999
 11
187.6996034859143
 21
-35.0
 31
111.0274999999999
  0
ENDBLK
  5
C6
330
BA
100
AcDbEntity
  8
0
100
AcDbBlockEnd
  0
BLOCK
  5
C8
330
C7
100
AcDbEntity
  8
0
100
AcDbBlockBegin
  2
*G2
 70
     0
 71
     1
 10
0.0
 20
0.0
 30
0.0
  3
*G2
  1

  0
LINE
  5
C9
330
C7
100
AcDbEntity
  8
LEVEL0
  6
SOLID
 62
     7
370
    18
100
AcDbLine
 10
0.0
 20
147.4856191078952
 30
135.0
 11
35.0
 21
147.4856191078952
 31
135.0
  0
LINE
  5
CA
330
C7
100
AcDbEntity
  8
LEVEL0
  6
SOLID
 62
     7
370
    18
100
AcDbLine
 10
0.0
 20
-73.51438089210478
 30
130.0
 11
35.0
 21
-73.51438089210478
 31
130.0
  0
LINE
  5
CB
330
C7
100
AcDbEntity
  8
LEVEL0
  6
SOLID
 62
     7
370
    18
100
AcDbLine
 10
35.0
 20
-68.51438089210478
 30
135.0
 11
35.0
 21
147.4856191078952
 31
135.0
  0
LINE
  5
CC
330
C7
100
AcDbEntity
  8
LEVEL0
  6
SOLID
 62
     7
370
    18
100
AcDbLine
 10
0.0
 20
-68.51438089210478
 30
135.0
 11
0.0
 21
147.4856191078952
 31
135.0
  0
ARC
  5
CD
330
C7
100
AcDbEntity
  8
LEVEL0
  6
SOLID
 62
     7
370
    18
100
AcDbCircle
 10
-68.51438089210478
 20
129.9999999999999
 30
0.0
 40
5.0
210
1.0
220
0.0
230
0.0
100
AcDbArc
 50
90.00000000000001
 51
180.0
  0
ARC
  5
CE
330
C7
100
AcDbEntity
  8
LEVEL0
  6
SOLID
 62
     7
370
    18
100
AcDbCircle
 10
68.51438089210478
 20
129.9999999999999
 30
-35.0
 40
5.0
210
-1.0
220
0.0
230
0.0
100
AcDbArc
 50
0.0
 51
89.99999999999999
  0
LINE
  5
CF
330
C7
100
AcDbEntity
  8
LEVEL0
  6
SOLID
 62
   196
370
     9
100
AcDbLine
 10
35.0
 20
-68.51438089210478
 30
135.0
 11
0.0
 21
-68.51438089210478
 31
135.0
  0
ENDBLK
  5
D0
330
C7
100
AcDbEntity
  8
0
100
AcDbBlockEnd
  0
BLOCK
  5
D2
330
D1
100
AcDbEntity
  8
0
100
AcDbBlockBegin
  2
*G3
 70
     0
 71
     1
 10
0.0
 20
0.0
 30
0.0
  3
*G3
  1

  0
LINE
  5
D3
330
D1
100
AcDbEntity
  8
LEVEL0
  6
SOLID
 62
     7
370
    18
100
AcDbLine
 10
0.0
 20
120.461753604603
 30
135.0000000000001
 11
-35.0
 21
120.461753604603
 31
135.0000000000001
  0
LINE
  5
D4
330
D1
100
AcDbEntity
  8
LEVEL0
  6
SOLID
 62
     7
370
    18
100
AcDbLine
 10
-35.0
 20
-100.5382463953971
 30
130.0000000000001
 11
0.0
 21
-100.5382463953971
 31
130.0000000000001
  0
LINE
  5
D5
330
D1
100
AcDbEntity
  8
LEVEL0
  6
SOLID
 62
     7
370
    18
100
AcDbLine
 10
0.0
 20
120.461753604603
 30
135.0000000000001
 11
0.0
 21
-95.53824639539715
 31
135.0000000000001
  0
ARC
  5
D6
330
D1
100
AcDbEntity
  8
LEVEL0
  6
SOLID
 62
     7
370
    18
100
AcDbCircle
 10
95.53824639539715
 20
130.0
 30
0.0
 40
5.0
210
-1.0
220
0.0
230
0.0
100
AcDbArc
 50
360.0
 51
89.99999999999997
  0
ARC
  5
D7
330
D1
100
AcDbEntity
  8
LEVEL0
  6
SOLID
 62
     7
370
    18
100
AcDbCircle
 10
-95.53824639539715
 20
130.0
 30
-35.0
 40
5.0
210
1.0
220
0.0
230
0.0
100
AcDbArc
 50
90.00000000000004
 51
180.0
  0
LINE
  5
D8
330
D1
100
AcDbEntity
  8
LEVEL0
  6
SOLID
 62
     7
370
    18
100
AcDbLine
 10
-35.0
 20
120.461753604603
 30
135.0000000000001
 11
-35.0
 21
-95.53824639539715
 31
135.0000000000001
  0
LINE
  5
D9
330
D1
100
AcDbEntity
  8
LEVEL0
  6
SOLID
 62
   196
370
     9
100
AcDbLine
 10
0.0
 20
-95.53824639539715
 30
135.0
 11
-35.0
 21
-95.53824639539715
 31
135.0
  0
ENDBLK
  5
DA
330
D1
100
AcDbEntity
  8
0
100
AcDbBlockEnd
  0
BLOCK
  5
DC
330
DB
100
AcDbEntity
  8
0
100
AcDbBlockBegin
  2
*G4
 70
     0
 71
     1
 10
0.0
 20
0.0
 30
0.0
  3
*G4
  1

  0
ARC
  5
DD
330
DB
100
AcDbEntity
  8
LEVEL0
  6
SOLID
 62
     7
370
    18
100
AcDbCircle
 10
3.093541840891962
 20
17.49999999999998
 30
109.9725000000001
 40
5.5
100
AcDbArc
 50
90.0
 51
270.0
  0
LINE
  5
DE
330
DB
100
AcDbEntity
  8
LEVEL0
  6
SOLID
 62
     7
370
    18
100
AcDbLine
 10
257.593541840892
 20
0.0
 30
109.9725000000001
 11
217.5935418408921
 21
0.0
 31
109.9725000000001
  0
ARC
  5
DF
330
DB
100
AcDbEntity
  8
LEVEL0
  6
SOLID
 62
     7
370
    18
100
AcDbCircle
 10
12.09354184089197
 20
17.49999999999991
 30
109.9725000000001
 40
5.5
100
AcDbArc
 50
270.0
 51
90.0
  0
LINE
  5
E0
330
DB
100
AcDbEntity
  8
LEVEL0
  6
SOLID
 62
     7
370
    18
100
AcDbLine
 10
233.093541840892
 20
23.0
 30
109.9725000000001
 11
242.093541840892
 21
23.0
 31
109.9725000000001
  0
LINE
  5
E1
330
DB
100
AcDbEntity
  8
LEVEL0
  6
SOLID
 62
     7
370
    18
100
AcDbLine
 10
217.593541840892
 20
35.0
 30
109.9725000000001
 11
217.593541840892
 21
0.0
 31
109.9725000000001
  0
LINE
  5
E2
330
DB
100
AcDbEntity
  8
LEVEL0
  6
SOLID
 62
     7
370
    18
100
AcDbLine
 10
-12.4064581591081
 20
0.0
 30
109.9725
 11
-12.4064581591081
 21
35.0
 31
109.9725
  0
LINE
  5
E3
330
DB
100
AcDbEntity
  8
LEVEL0
  6
SOLID
 62
     7
370
    18
100
AcDbLine
 10
257.593541840892
 20
35.0
 30
109.9725000000001
 11
217.5935418408921
 21
35.0
 31
109.9725000000001
  0
LINE
  5
E4
330
DB
100
AcDbEntity
  8
LEVEL0
  6
SOLID
 62
     7
370
    18
100
AcDbLine
 10
257.593541840892
 20
0.0
 30
109.9725000000001
 11
257.593541840892
 21
35.0
 31
109.9725000000001
  0
ARC
  5
E5
330
DB
100
AcDbEntity
  8
LEVEL0
  6
SOLID
 62
     7
370
    18
100
AcDbCircle
 10
242.0935418408922
 20
17.49999999999999
 30
109.9725
 40
5.500000000000001
100
AcDbArc
 50
270.0
 51
89.99999999999994
  0
LINE
  5
E6
330
DB
100
AcDbEntity
  8
LEVEL0
  6
SOLID
 62
     7
370
    18
100
AcDbLine
 10
27.59354184089204
 20
35.0
 30
109.9725000000001
 11
-12.4064581591081
 21
35.0
 31
109.9725000000001
  0
LINE
  5
E7
330
DB
100
AcDbEntity
  8
LEVEL0
  6
SOLID
 62
     7
370
    18
100
AcDbLine
 10
217.5935418408919
 20
0.0
 30
84.97250000000008
 11
27.59354184089193
 21
0.0
 31
84.97250000000008
  0
ARC
  5
E8
330
DB
100
AcDbEntity
  8
LEVEL0
  6
SOLID
 62
     7
370
    18
100
AcDbCircle
 10
233.0935418408921
 20
17.50000000000006
 30
109.9725
 40
5.5
100
AcDbArc
 50
90.0
 51
270.0
  0
LINE
  5
E9
330
DB
100
AcDbEntity
  8
LEVEL0
  6
SOLID
 62
     7
370
    18
100
AcDbLine
 10
27.59354184089204
 20
0.0
 30
109.9725000000001
 11
27.59354184089204
 21
35.0
 31
109.9725000000001
  0
LINE
  5
EA
330
DB
100
AcDbEntity
  8
LEVEL0
  6
SOLID
 62
     7
370
    18
100
AcDbLine
 10
12.09354184089197
 20
11.99999999999986
 30
109.9725
 11
3.093541840891959
 21
11.99999999999986
 31
109.9725
  0
LINE
  5
EB
330
DB
100
AcDbEntity
  8
LEVEL0
  6
SOLID
 62
     7
370
    18
100
AcDbLine
 10
27.59354184089193
 20
35.0
 30
84.97249999999998
 11
217.5935418408919
 21
35.0
 31
84.97249999999998
  0
LINE
  5
EC
330
DB
100
AcDbEntity
  8
LEVEL0
  6
SOLID
 62
     7
370
    18
100
AcDbLine
 10
27.59354184089204
 20
0.0
 30
109.9725000000001
 11
-12.4064581591081
 21
0.0
 31
109.9725000000001
  0
LINE
  5
ED
330
DB
100
AcDbEntity
  8
LEVEL0
  6
SOLID
 62
     7
370
    18
100
AcDbLine
 10
3.093541840891959
 20
22.99999999999991
 30
109.9725
 11
12.09354184089197
 21
22.99999999999991
 31
109.9725
  0
LINE
  5
EE
330
DB
100
AcDbEntity
  8
LEVEL0
  6
SOLID
 62
     7
370
    18
100
AcDbLine
 10
242.093541840892
 20
12.0
 30
109.9725000000001
 11
233.093541840892
 21
12.0
 31
109.9725000000001
  0
ENDBLK
  5
EF
330
DB
100
AcDbEntity
  8
0
100
AcDbBlockEnd
  0
BLOCK
  5
F1
330
F0
100
AcDbEntity
  8
0
100
AcDbBlockBegin
  2
*G5
 70
     0
 71
     1
 10
0.0
 20
0.0
 30
0.0
  3
*G5
  1

  0
LINE
  5
F2
330
F0
100
AcDbEntity
  8
LEVEL0
  6
SOLID
 62
     7
370
    18
100
AcDbLine
 10
172.1810043789524
 20
11.8392938612601
 30
18.0526415016163
 11
143.8967331314904
 21
19.41804020527595
 31
-9.197360403944323
  0
LINE
  5
F3
330
F0
100
AcDbEntity
  8
LEVEL0
  6
SOLID
 62
     7
370
    18
100
AcDbLine
 10
165.1099365670868
 20
11.8392938612601
 30
18.05264150161631
 11
150.9678009433559
 21
8.04992068925219
 31
31.67764245439662
  0
LINE
  5
F4
330
F0
100
AcDbEntity
  8
LEVEL0
  6
SOLID
 62
     7
370
    18
100
AcDbLine
 10
143.8967331314905
 20
19.41804020527602
 30
-9.197360403944415
 11
140.3611992255577
 21
18.47069691227403
 31
-5.791110165749325
  0
LINE
  5
F5
330
F0
100
AcDbEntity
  8
LEVEL0
  6
SOLID
 62
     7
370
    18
100
AcDbLine
 10
172.1810043789524
 20
11.8392938612601
 30
18.0526415016163
 11
172.1810043789524
 21
-21.88086312458453
 31
8.674421369310068
  0
LINE
  5
F6
330
F0
100
AcDbEntity
  8
LEVEL0
  6
SOLID
 62
     7
370
    18
100
AcDbLine
 10
150.967800943356
 20
8.049920689252119
 30
31.6776424543967
 11
-32.87996216514728
 21
57.3117719253552
 31
-145.4473699317475
  0
LINE
  5
F7
330
F0
100
AcDbEntity
  8
LEVEL0
  6
SOLID
 62
     7
370
    18
100
AcDbLine
 10
-36.41549607107925
 20
56.36442863235369
 30
-142.041119693553
 11
147.4322670374228
 21
7.102577396249089
 31
35.08389269259189
  0
LINE
  5
F8
330
F0
100
AcDbEntity
  8
LEVEL0
  6
SOLID
 62
     7
370
    18
100
AcDbLine
 10
-18.73782654141564
 20
62.99583168336767
 30
-165.8848713609187
 11
-171.4728912777097
 21
22.07060142568076
 31
-18.73486107089064
  0
LINE
  5
F9
330
F0
100
AcDbEntity
  8
LEVEL0
  6
SOLID
 62
     7
370
    18
100
AcDbLine
 10
19.44593964265812
 20
-62.80609338227059
 30
155.8244316593381
 11
172.1810043789523
 21
-21.88086312458517
 31
8.674421369309812
  0
LINE
  5
FA
330
F0
100
AcDbEntity
  8
LEVEL0
  6
SOLID
 62
     7
370
    18
100
AcDbLine
 10
9.546444706046373
 20
55.4170853393517
 30
-138.6348694553579
 11
9.546444706046373
 21
45.94365251003974
 31
-141.2696121856244
  0
ARC
  5
FB
330
F0
100
AcDbEntity
  8
LEVEL0
  6
SOLID
 62
     7
370
    18
100
AcDbCircle
 10
-167.9373573717771
 20
-20.42804938094879
 30
-16.24355695928576
 40
4.999999999999998
210
0.0
220
-0.9634330567384178
230
-0.2679491466373212
100
AcDbArc
 50
134.9999999999996
 51
225.0000000000002
  0
LINE
  5
FC
330
F0
100
AcDbEntity
  8
LEVEL0
  6
SOLID
 62
     7
370
    18
100
AcDbLine
 10
9.546444706046373
 20
55.4170853393517
 30
-138.6348694553579
 11
-18.73782654141558
 21
62.99583168336782
 31
-165.8848713609188
  0
LINE
  5
FD
330
F0
100
AcDbEntity
  8
LEVEL0
  6
SOLID
 62
     7
370
    18
100
AcDbLine
 10
-171.4728912777098
 20
20.17591483967759
 30
-11.92236059450045
 11
12.37487183079338
 21
-29.08593639642547
 31
165.2026517916437
  0
LINE
  5
FE
330
F0
100
AcDbEntity
  8
LEVEL0
  6
SOLID
 62
     7
370
    18
100
AcDbLine
 10
147.4322670374231
 20
7.102577396250112
 30
35.08389269259185
 11
15.91040573672475
 21
-28.1385931034236
 31
161.7964015534488
  0
LINE
  5
FF
330
F0
100
AcDbEntity
  8
LEVEL0
  6
SOLID
 62
     7
370
    18
100
AcDbLine
 10
140.3611992255577
 20
18.47069691227404
 30
-5.79111016574933
 11
140.3611992255577
 21
10.89195055694437
 31
-7.898904375516266
  0
LINE
  5
100
330
F0
100
AcDbEntity
  8
LEVEL0
  6
SOLID
 62
     7
370
    18
100
AcDbLine
 10
19.44593964265812
 20
-29.08593639642596
 30
165.2026517916443
 11
172.1810043789523
 21
11.83929386125946
 31
18.05264150161605
  0
LINE
  5
101
330
F0
100
AcDbEntity
  8
LEVEL0
  6
SOLID
 62
     7
370
    18
100
AcDbLine
 10
-32.87996216514659
 20
57.31177192535569
 30
-145.4473699317481
 11
-18.73782654141564
 21
61.10114509736374
 31
-159.0723708845285
  0
LINE
  5
102
330
F0
100
AcDbEntity
  8
LEVEL0
  6
SOLID
 62
     7
370
    18
100
AcDbLine
 10
6.010910800113606
 20
46.89099569102004
 30
-137.3364134269297
 11
6.010910800113606
 21
54.46974204634974
 31
-135.2286192171629
  0
LINE
  5
103
330
F0
100
AcDbEntity
  8
LEVEL0
  6
SOLID
 62
     7
370
    18
100
AcDbLine
 10
-18.73782654141564
 20
61.10114509736366
 30
-159.0723708845285
 11
-18.73782654141564
 21
53.52239874203396
 31
-161.1801650942953
  0
LINE
  5
104
330
F0
100
AcDbEntity
  8
LEVEL0
  6
SOLID
 62
     7
370
    18
100
AcDbLine
 10
-171.4728912777098
 20
-13.54424214616702
 30
-21.30058072680669
 11
12.37487183079338
 21
-62.80609338227008
 31
155.8244316593374
  0
LINE
  5
105
330
F0
100
AcDbEntity
  8
LEVEL0
  6
SOLID
 62
     7
370
    18
100
AcDbLine
 10
15.91040573672535
 20
-28.13859310342397
 30
161.7964015534492
 11
-167.937357371777
 21
21.12325813267886
 31
-15.32861083269592
  0
LINE
  5
106
330
F0
100
AcDbEntity
  8
LEVEL0
  6
SOLID
 62
     7
370
    18
100
AcDbLine
 10
-167.9373573717771
 20
21.12325813267958
 30
-15.32861083269552
 11
-36.41549607107862
 21
56.36442863235332
 31
-142.0411196935525
  0
ARC
  5
107
330
F0
100
AcDbEntity
  8
LEVEL0
  6
SOLID
 62
     7
370
    18
100
AcDbCircle
 10
167.9373573717771
 20
-20.42804938094879
 30
-18.75644304071422
 40
4.999999999999998
210
0.0
220
0.9634330567384178
230
0.2679491466373212
100
AcDbArc
 50
0.0
 51
45.00000125223903
  0
LINE
  5
108
330
F0
100
AcDbEntity
  8
LEVEL0
  6
SOLID
 62
     7
370
    18
100
AcDbLine
 10
6.010910800113606
 20
54.46974204634971
 30
-135.2286192171628
 11
9.546444706046355
 21
55.41708533935172
 31
-138.6348694553579
  0
ARC
  5
109
330
F0
100
AcDbEntity
  8
LEVEL0
  6
SOLID
 62
     7
370
    18
100
AcDbCircle
 10
15.91040573672532
 20
163.4197137275533
 30
-16.24355695928567
 40
4.999999999999996
210
0.0
220
-0.9634330567384178
230
-0.2679491466373212
100
AcDbArc
 50
44.99999999999957
 51
135.0000000000004
  0
LINE
  5
10A
330
F0
100
AcDbEntity
  8
LEVEL0
  6
SOLID
 62
     7
370
    18
100
AcDbLine
 10
140.3611992255577
 20
18.47069691227404
 30
-5.791110165749316
 11
165.1099365670869
 21
11.83929386126017
 31
18.05264150161622
  0
ARC
  5
10B
330
F0
100
AcDbEntity
  8
LEVEL0
  6
SOLID
 62
     7
370
    18
100
AcDbCircle
 10
-15.91040573672532
 20
163.4197137275533
 30
-18.75644304071432
 40
4.999999999999996
210
0.0
220
0.9634330567384178
230
0.2679491466373212
100
AcDbArc
 50
44.99999999999957
 51
135.0000000000004
  0
LINE
  5
10C
330
F0
100
AcDbEntity
  8
LEVEL0
  6
SOLID
 62
     7
370
    18
100
AcDbLine
 10
-18.73782654141564
 20
61.10114509736366
 30
-159.0723708845285
 11
6.010910800113543
 21
54.46974204634956
 31
-135.2286192171628
  0
LINE
  5
10D
330
F0
100
AcDbEntity
  8
LEVEL0
  6
SOLID
 62
   196
370
     9
100
AcDbLine
 10
-171.4728912777098
 20
-13.54424214616702
 30
-21.30058072680669
 11
-171.4728912777098
 21
20.1759148396776
 31
-11.92236059450046
  0
LINE
  5
10E
330
F0
100
AcDbEntity
  8
LEVEL0
  6
SOLID
 62
   196
370
     9
100
AcDbLine
 10
12.37487183079259
 20
-29.08593639642596
 30
165.2026517916443
 11
12.37487183079259
 21
-62.80609338227046
 31
155.8244316593376
  0
LINE
  5
10F
330
F0
100
AcDbEntity
  8
LEVEL0
  6
SOLID
 62
   196
370
     9
100
AcDbLine
 10
19.44593964265812
 20
-62.80609338227059
 30
155.8244316593381
 11
19.44593964265812
 21
-29.08593639642609
 31
165.2026517916448
  0
LINE
  5
110
330
F0
100
AcDbEntity
  8
LEVEL0
  6
SOLID
 62
     7
370
    18
100
AcDbLine
 10
-172.9373573717771
 20
21.12325813267957
 30
-15.3286108326955
 11
-172.9373573717771
 21
-12.59689885316505
 31
-24.70683096500174
  0
LINE
  5
111
330
F0
100
AcDbEntity
  8
LEVEL0
  6
SOLID
 62
     7
370
    18
100
AcDbLine
 10
33.9416286569824
 20
-13.83370937909387
 30
110.3620229567032
 11
16.0871824320219
 21
-9.049625749433833
 31
93.16045925381817
  0
LINE
  5
112
330
F0
100
AcDbEntity
  8
LEVEL0
  6
SOLID
 62
     7
370
    18
100
AcDbLine
 10
-41.01169014879167
 20
6.249968432548343
 30
38.14951790696732
 11
-58.15902959256551
 21
10.84458340360795
 31
21.6292042517212
  0
LINE
  5
113
330
F0
100
AcDbEntity
  8
LEVEL0
  6
SOLID
 62
     7
370
    18
100
AcDbLine
 10
-23.34903298939275
 20
1.035557990970638
 30
55.03233111085101
 11
-39.59747658641862
 21
5.389314586978299
 31
39.37804342892674
  0
LINE
  5
114
330
F0
100
AcDbEntity
  8
LEVEL0
  6
SOLID
 62
     7
370
    18
100
AcDbLine
 10
65.3928667008197
 20
24.8138750067034
 30
-30.46455116722709
 11
49.14442445249303
 21
29.16763124132826
 31
-46.11883754976996
  0
LINE
  5
115
330
F0
100
AcDbEntity
  8
LEVEL0
  6
SOLID
 62
     7
370
    18
100
AcDbLine
 10
-106.7726207991407
 20
8.523592335753094
 30
29.97451733529921
 11
-123.9199602429145
 21
13.1182073068127
 31
13.45420368005308
  0
LINE
  5
116
330
F0
100
AcDbEntity
  8
LEVEL0
  6
SOLID
 62
     7
370
    18
100
AcDbLine
 10
37.65393925821172
 20
16.62337749092015
 30
0.851077798731076
 11
37.65393925821172
 21
16.14166096255094
 31
0.7171032254124156
  0
LINE
  5
117
330
F0
100
AcDbEntity
  8
LEVEL0
  6
SOLID
 62
     7
370
    18
100
AcDbLine
 10
72.46393586138436
 20
6.814352078282802
 30
34.25420465786091
 11
56.21549226435849
 21
11.16810867429046
 31
18.59991697593664
  0
LINE
  5
118
330
F0
100
AcDbEntity
  8
LEVEL0
  6
SOLID
 62
     7
370
    18
100
AcDbLine
 10
1.945046808291067
 20
26.94941938464187
 30
-36.27704979759547
 11
19.09238625206488
 21
22.35480441358227
 31
-19.75673614234937
  0
LINE
  5
119
330
F0
100
AcDbEntity
  8
LEVEL0
  6
SOLID
 62
     7
370
    18
100
AcDbLine
 10
-38.18326302404546
 20
6.249968432548343
 30
38.14951790696732
 11
-21.03592358027164
 21
1.65535346148874
 31
54.66983156221342
  0
LINE
  5
11A
330
F0
100
AcDbEntity
  8
LEVEL0
  6
SOLID
 62
     7
370
    18
100
AcDbLine
 10
-18.03071976022898
 20
31.06231782733228
 30
-52.93133802616018
 11
-45.06254311904888
 21
23.81916382628579
 31
-26.88798581835958
  0
LINE
  5
11B
330
F0
100
AcDbEntity
  8
LEVEL0
  6
SOLID
 62
     7
370
    18
100
AcDbLine
 10
-68.2503095486411
 20
28.79271539178062
 30
-44.7707969701211
 11
-85.20586397295098
 21
33.33594173053704
 31
-61.10633859782843
  0
LINE
  5
11C
330
F0
100
AcDbEntity
  8
LEVEL0
  6
SOLID
 62
     7
370
    18
100
AcDbLine
 10
-35.17805920400269
 20
36.89652396116279
 30
-72.04267729864392
 11
-18.03071976022877
 21
32.30190899010298
 31
-55.52236364339789
  0
LINE
  5
11D
330
F0
100
AcDbEntity
  8
LEVEL0
  6
SOLID
 62
     7
370
    18
100
AcDbLine
 10
-114.5507953921926
 20
25.47299239862055
 30
-32.83446162080925
 11
-142.2897282295974
 21
18.04036901620809
 31
-6.109856766606928
  0
LINE
  5
11E
330
F0
100
AcDbEntity
  8
LEVEL0
  6
SOLID
 62
     7
370
    18
100
AcDbLine
 10
62.38766557817519
 20
-6.211618561877373
 30
81.09014673242476
 11
45.43211385126371
 21
-1.668392945886552
 31
64.75460770348005
  0
LINE
  5
11F
330
F0
100
AcDbEntity
  8
LEVEL0
  6
SOLID
 62
     7
370
    18
100
AcDbLine
 10
67.70597745863995
 20
24.67579548143707
 30
-28.10204922592715
 11
67.70597745863995
 21
24.19407895306786
 31
-28.23602379924581
  0
LINE
  5
120
330
F0
100
AcDbEntity
  8
LEVEL0
  6
SOLID
 62
     7
370
    18
100
AcDbLine
 10
9.723221401343153
 20
9.139365476204418
 30
27.76045468047229
 11
37.65393925821186
 21
16.62337749092006
 31
0.8510777987311933
  0
LINE
  5
121
330
F0
100
AcDbEntity
  8
LEVEL0
  6
SOLID
 62
     7
370
    18
100
AcDbLine
 10
56.21549226435866
 20
11.6498252026597
 30
18.7338915492553
 11
56.21549226435866
 21
11.16810867429049
 31
18.59991697593664
  0
LINE
  5
122
330
F0
100
AcDbEntity
  8
LEVEL0
  6
SOLID
 62
     7
370
    18
100
AcDbLine
 10
-38.18326302404546
 20
6.249968432548343
 30
38.14951790696732
 11
-10.25254516717676
 21
13.73398044726398
 31
11.24014102522624
  0
LINE
  5
123
330
F0
100
AcDbEntity
  8
LEVEL0
  6
SOLID
 62
     7
370
    18
100
AcDbLine
 10
-4.78747964607112
 20
-3.937994387635513
 30
72.91514518622057
 11
-21.03592358027165
 21
0.4157622987178122
 31
57.26085717945092
  0
LINE
  5
124
330
F0
100
AcDbEntity
  8
LEVEL0
  6
SOLID
 62
     7
370
    18
100
AcDbLine
 10
-51.08796178070008
 20
-6.397064529028277
 30
83.62295858687192
 11
-68.23530122447386
 21
-1.802449557968688
 31
67.10264493162569
  0
LINE
  5
125
330
F0
100
AcDbEntity
  8
LEVEL0
  6
SOLID
 62
     7
370
    18
100
AcDbLine
 10
-78.13479616108543
 20
16.19707300906925
 30
2.383890405918869
 11
-95.28213560485926
 21
20.79168798012886
 31
-14.13642324932725
  0
LINE
  5
126
330
F0
100
AcDbEntity
  8
LEVEL0
  6
SOLID
 62
     7
370
    18
100
AcDbLine
 10
14.67296886964891
 20
-8.670688432233021
 30
91.79795915854001
 11
-2.474370574124823
 21
-4.076073461173441
 31
75.27764550329381
  0
LINE
  5
127
330
F0
100
AcDbEntity
  8
LEVEL0
  6
SOLID
 62
     7
370
    18
100
AcDbLine
 10
-96.69634916723231
 20
21.17062529732971
 30
-15.49892334460536
 11
-125.3341738052877
 21
13.49714462401363
 31
12.09170358477487
  0
LINE
  5
128
330
F0
100
AcDbEntity
  8
LEVEL0
  6
SOLID
 62
     7
370
    18
100
AcDbLine
 10
-93.86792204248604
 20
21.17062529732971
 30
-15.49892334460538
 11
-65.93720418561738
 21
28.65463731204535
 31
-42.40830022634643
  0
LINE
  5
129
330
F0
100
AcDbEntity
  8
LEVEL0
  6
SOLID
 62
     7
370
    18
100
AcDbLine
 10
26.87056084511687
 20
3.786875870743167
 30
47.00576852627457
 11
26.87056084511687
 21
3.305159342373955
 31
46.8717939529559
  0
LINE
  5
12A
330
F0
100
AcDbEntity
  8
LEVEL0
  6
SOLID
 62
     7
370
    18
100
AcDbLine
 10
-3.888584136497911
 20
-3.697136143972564
 30
73.91514540801577
 11
-21.03592358027165
 21
0.8974788270870162
 31
57.39483175276958
  0
LINE
  5
12B
330
F0
100
AcDbEntity
  8
LEVEL0
  6
SOLID
 62
     7
370
    18
100
AcDbLine
 10
56.21549226435855
 20
11.16810867429045
 30
18.59991697593677
 11
29.18366890553864
 21
3.924954673243962
 31
44.64326918373737
  0
LINE
  5
12C
330
F0
100
AcDbEntity
  8
LEVEL0
  6
SOLID
 62
     7
370
    18
100
AcDbLine
 10
49.14442445249301
 20
29.16763124132829
 30
-46.11883754976998
 11
21.40549700988483
 21
21.73500930444698
 31
-19.39423789309303
  0
LINE
  5
12D
330
F0
100
AcDbEntity
  8
LEVEL0
  6
SOLID
 62
     7
370
    18
100
AcDbLine
 10
-22.45013714264473
 20
1.276416144287893
 30
56.03233165749154
 11
-51.08796178070018
 21
-6.3970645290282
 31
83.62295858687183
  0
LINE
  5
12E
330
F0
100
AcDbEntity
  8
LEVEL0
  6
SOLID
 62
     7
370
    18
100
AcDbLine
 10
33.04273415893351
 20
-14.0745678937939
 30
109.362023709444
 11
16.08718243202203
 21
-9.531342277803084
 31
93.02648468049932
  0
LINE
  5
12F
330
F0
100
AcDbEntity
  8
LEVEL0
  6
SOLID
 62
     7
370
    18
100
AcDbLine
 10
-30.22831173569682
 20
19.08647005272533
 30
-8.005172820576167
 11
-47.37565117947071
 21
23.68108502378495
 31
-24.52548647582229
  0
LINE
  5
130
330
F0
100
AcDbEntity
  8
LEVEL0
  6
SOLID
 62
     7
370
    18
100
AcDbLine
 10
-54.44671899133607
 20
42.05954490802364
 30
-90.6067410968072
 11
-36.5922727663758
 21
37.27546127836349
 31
-73.405177393922
  0
LINE
  5
131
330
F0
100
AcDbEntity
  8
LEVEL0
  6
SOLID
 62
     7
370
    18
100
AcDbLine
 10
-38.00648632874891
 20
36.89652396116279
 30
-72.04267729864392
 11
-65.93720418561743
 21
29.41251194644691
 31
-45.13330041690273
  0
LINE
  5
132
330
F0
100
AcDbEntity
  8
LEVEL0
  6
SOLID
 62
     7
370
    18
100
AcDbLine
 10
104.8290834709336
 20
14.24697437654693
 30
7.529603701802728
 11
77.09015602832541
 21
6.81435243966561
 31
34.25420335847967
  0
LINE
  5
133
330
F0
100
AcDbEntity
  8
LEVEL0
  6
SOLID
 62
     7
370
    18
100
AcDbLine
 10
-8.838331604803784
 20
14.11291776446488
 30
9.87764092994805
 11
19.09238625206492
 21
21.59692977918053
 31
-17.03173595179303
  0
LINE
  5
134
330
F0
100
AcDbEntity
  8
LEVEL0
  6
SOLID
 62
     7
370
    18
100
AcDbLine
 10
49.14442445249301
 20
29.64934776969753
 30
-45.9848629764514
 11
66.29176389626681
 21
25.05473279863793
 31
-29.46454932120531
  0
LINE
  5
135
330
F0
100
AcDbEntity
  8
LEVEL0
  6
SOLID
 62
     7
370
    18
100
AcDbLine
 10
16.0871824320219
 20
-9.531342277803063
 30
93.02648468049951
 11
-11.65174770798443
 21
-16.96396493744992
 31
119.7510869359393
  0
LINE
  5
136
330
F0
100
AcDbEntity
  8
LEVEL0
  6
SOLID
 62
     7
370
    18
100
AcDbLine
 10
13.77407302290101
 20
-8.91154658555027
 30
90.79795861189945
 11
-2.47437057412494
 21
-4.557789989542586
 31
75.14367092997527
  0
LINE
  5
137
330
F0
100
AcDbEntity
  8
LEVEL0
  6
SOLID
 62
     7
370
    18
100
AcDbLine
 10
-48.78986474184376
 20
24.06002234098579
 30
-25.88798657110041
 11
-76.72058259871247
 21
16.57601032627014
 31
1.021390310640683
  0
LINE
  5
138
330
F0
100
AcDbEntity
  8
LEVEL0
  6
SOLID
 62
     7
370
    18
100
AcDbLine
 10
46.84632741363691
 20
-0.8077391003164891
 30
63.52608218152074
 11
64.7007736385972
 21
-5.591822729976466
 31
80.72764588440594
  0
LINE
  5
139
330
F0
100
AcDbEntity
  8
LEVEL0
  6
SOLID
 62
     7
370
    18
100
AcDbLine
 10
30.58287144634608
 20
34.14118352958876
 30
-64.00165130029421
 11
2.843944003737992
 21
26.70856159270718
 31
-37.27705164361737
  0
LINE
  5
13A
330
F0
100
AcDbEntity
  8
LEVEL0
  6
SOLID
 62
     7
370
    18
100
AcDbLine
 10
-28.81409817332383
 20
18.22581620715529
 30
-6.776647298616687
 11
-55.84592052061937
 21
10.98266247714589
 31
19.2667039346479
  0
LINE
  5
13B
330
F0
100
AcDbEntity
  8
LEVEL0
  6
SOLID
 62
     7
370
    18
100
AcDbLine
 10
67.70597745863984
 20
24.19407895306784
 30
-28.23602379924574
 11
39.96705001603165
 21
16.76145701618653
 31
-1.511424142568796
  0
LINE
  5
13C
330
F0
100
AcDbEntity
  8
LEVEL0
  6
SOLID
 62
     7
370
    18
100
AcDbLine
 10
8.30900783896982
 20
8.278711630634376
 30
28.98898020243179
 11
-18.72281450832569
 21
1.035557900624985
 31
55.03233143569635
  0
LINE
  5
13D
330
F0
100
AcDbEntity
  8
LEVEL0
  6
SOLID
 62
     7
370
    18
100
AcDbLine
 10
45.43211385126358
 20
-1.668392945886534
 30
64.75460770348026
 11
18.40029150396819
 21
-8.911546675895892
 31
90.79795893674496
  0
LINE
  5
13E
330
F0
100
AcDbEntity
  8
LEVEL0
  6
SOLID
 62
     7
370
    18
100
AcDbLine
 10
-49.68876193729085
 20
23.81916454905131
 30
-26.88798841712227
 11
-65.93720418561755
 21
28.17292078367618
 31
-42.54227479966518
  0
LINE
  5
13F
330
F0
100
AcDbEntity
  8
LEVEL0
  6
SOLID
 62
     7
370
    18
100
AcDbLine
 10
-49.67374821832698
 20
-6.776001846229079
 30
84.98545868214995
 11
-21.03592358027139
 21
0.8974788270870508
 31
57.39483175276983
  0
LINE
  5
140
330
F0
100
AcDbEntity
  8
LEVEL0
  6
SOLID
 62
     7
370
    18
100
AcDbLine
 10
104.8290834709337
 20
14.72869090491615
 30
7.663578275121324
 11
104.8290834709337
 21
14.24697437654694
 31
7.529603701802664
  0
LINE
  5
141
330
F0
100
AcDbEntity
  8
LEVEL0
  6
SOLID
 62
     7
370
    18
100
AcDbLine
 10
-25.80889435328106
 20
49.73302558133977
 30
-118.1973680261874
 11
-25.80889435328106
 21
49.25130905297056
 31
-118.3313425995061
  0
LINE
  5
142
330
F0
100
AcDbEntity
  8
LEVEL0
  6
SOLID
 62
     7
370
    18
100
AcDbLine
 10
-55.86093255370929
 20
41.19889106245363
 30
-89.37821557484779
 11
-82.89275321513072
 21
33.95573778417248
 31
-63.33486596580978
  0
LINE
  5
143
330
F0
100
AcDbEntity
  8
LEVEL0
  6
SOLID
 62
     7
370
    18
100
AcDbLine
 10
-36.5922727663758
 20
36.03587011559274
 30
-70.81415177668441
 11
-63.62409612519582
 21
28.79271611454595
 31
-44.77079956888397
  0
LINE
  5
144
330
F0
100
AcDbEntity
  8
LEVEL0
  6
SOLID
 62
     7
370
    18
100
AcDbLine
 10
86.26753046478677
 20
19.22052666480738
 30
-10.35321004872151
 11
58.52860302217859
 21
11.78790472792606
 31
16.37138960795544
  0
LINE
  5
145
330
F0
100
AcDbEntity
  8
LEVEL0
  6
SOLID
 62
     7
370
    18
100
AcDbLine
 10
-60.47214035038564
 20
10.98266292887433
 30
19.26670231042123
 11
-76.72058259871238
 21
15.3364191634992
 31
3.612415927878295
  0
LINE
  5
146
330
F0
100
AcDbEntity
  8
LEVEL0
  6
SOLID
 62
     7
370
    18
100
AcDbLine
 10
-65.93720418561753
 20
28.65463731204543
 30
-42.40830022634656
 11
-65.93720418561747
 21
28.17292078367623
 31
-42.54227479966524
  0
LINE
  5
147
330
F0
100
AcDbEntity
  8
LEVEL0
  6
SOLID
 62
     7
370
    18
100
AcDbLine
 10
30.58287144634619
 20
34.62290005795799
 30
-63.86767672697563
 11
47.73021089011996
 21
30.02828508689823
 31
-47.34736307172957
  0
LINE
  5
148
330
F0
100
AcDbEntity
  8
LEVEL0
  6
SOLID
 62
     7
370
    18
100
AcDbLine
 10
25.45634728274376
 20
4.165813187943968
 30
45.6432684309965
 11
8.309007838969961
 21
8.760428159003567
 31
29.12295477575041
  0
LINE
  5
149
330
F0
100
AcDbEntity
  8
LEVEL0
  6
SOLID
 62
     7
370
    18
100
AcDbLine
 10
5.303804018927053
 20
-21.50719005241002
 30
137.9526498860836
 11
-12.5506422060332
 21
-16.72310642275006
 31
120.7510861831984
  0
LINE
  5
14A
330
F0
100
AcDbEntity
  8
LEVEL0
  6
SOLID
 62
     7
370
    18
100
AcDbLine
 10
103.4148699085605
 20
15.10762822211696
 30
6.301078179843245
 11
74.77704527050534
 21
7.43414754880095
 31
33.89170510922328
  0
LINE
  5
14B
330
F0
100
AcDbEntity
  8
LEVEL0
  6
SOLID
 62
     7
370
    18
100
AcDbLine
 10
-47.37565117947065
 20
23.68108502378499
 30
-24.52548647582235
 11
-47.37565117947065
 21
23.19936849541578
 31
-24.65946104914102
  0
LINE
  5
14C
330
F0
100
AcDbEntity
  8
LEVEL0
  6
SOLID
 62
     7
370
    18
100
AcDbLine
 10
-69.64951478684691
 20
-1.42351224076782
 30
65.74014483634768
 11
-86.79685423062087
 21
3.171102730291821
 31
49.21983118110161
  0
LINE
  5
14D
330
F0
100
AcDbEntity
  8
LEVEL0
  6
SOLID
 62
     7
370
    18
100
AcDbLine
 10
33.9416286569824
 20
-13.83370937909387
 30
110.3620229567032
 11
5.303804018926837
 21
-21.50719005240999
 31
137.9526498860833
  0
LINE
  5
14E
330
F0
100
AcDbEntity
  8
LEVEL0
  6
SOLID
 62
     7
370
    18
100
AcDbLine
 10
-13.96485576840632
 20
-16.34416910554919
 30
119.3885860879204
 11
-31.11219521218007
 21
-11.74955413448961
 31
102.8682724326742
  0
LINE
  5
14F
330
F0
100
AcDbEntity
  8
LEVEL0
  6
SOLID
 62
     7
370
    18
100
AcDbLine
 10
-2.474370574124919
 20
-4.557789989542606
 30
75.14367092997527
 11
-30.21330071413125
 21
-11.99041264918946
 31
101.868273185415
  0
LINE
  5
150
330
F0
100
AcDbEntity
  8
LEVEL0
  6
SOLID
 62
     7
370
    18
100
AcDbLine
 10
28.26976608332257
 20
34.76097813769316
 30
-66.23017347075013
 11
12.02131844019937
 21
39.11473581784931
 31
-81.88446505081848
  0
LINE
  5
151
330
F0
100
AcDbEntity
  8
LEVEL0
  6
SOLID
 62
     7
370
    18
100
AcDbLine
 10
-56.74481603019234
 20
11.22352072080881
 30
20.26670415644308
 11
-28.81409817332361
 21
18.70753273552446
 31
-6.642672725298027
  0
LINE
  5
152
330
F0
100
AcDbEntity
  8
LEVEL0
  6
SOLID
 62
     7
370
    18
100
AcDbLine
 10
-32.52640877455315
 20
-11.37061681728873
 30
101.5057723373962
 11
-49.67374821832712
 21
-6.776001846229091
 31
84.9854586821501
  0
LINE
  5
153
330
F0
100
AcDbEntity
  8
LEVEL0
  6
SOLID
 62
     7
370
    18
100
AcDbLine
 10
102.5159740618126
 20
14.8667700687997
 30
5.301077633202709
 11
86.26753046478672
 21
19.22052666480737
 31
-10.35321004872156
  0
LINE
  5
154
330
F0
100
AcDbEntity
  8
LEVEL0
  6
SOLID
 62
     7
370
    18
100
AcDbLine
 10
20.506599814438
 20
21.97586709638141
 30
-18.39423604707122
 11
49.14442445249318
 21
29.64934776969744
 31
-45.98486297645125
  0
LINE
  5
155
330
F0
100
AcDbEntity
  8
LEVEL0
  6
SOLID
 62
     7
370
    18
100
AcDbLine
 10
86.26753046478677
 20
19.70224319317661
 30
-10.21923547540291
 11
103.4148699085606
 21
15.10762822211701
 31
6.301078179843174
  0
LINE
  5
156
330
F0
100
AcDbEntity
  8
LEVEL0
  6
SOLID
 62
     7
370
    18
100
AcDbLine
 10
19.09238625206467
 20
21.11521325081137
 30
-17.1657105251117
 11
-7.939437106755182
 21
13.87205924976489
 31
8.877641682688843
  0
LINE
  5
157
330
F0
100
AcDbEntity
  8
LEVEL0
  6
SOLID
 62
     7
370
    18
100
AcDbLine
 10
-18.03071976022886
 20
31.54403435570152
 30
-52.79736345284162
 11
-18.03071976022886
 21
31.06231782733231
 31
-52.93133802616028
  0
LINE
  5
158
330
F0
100
AcDbEntity
  8
LEVEL0
  6
SOLID
 62
     7
370
    18
100
AcDbLine
 10
8.309007838970047
 20
8.760428159003624
 30
29.12295477575034
 11
8.309007838970047
 21
8.278711630634412
 31
28.98898020243168
  0
LINE
  5
159
330
F0
100
AcDbEntity
  8
LEVEL0
  6
SOLID
 62
     7
370
    18
100
AcDbLine
 10
54.80127870198544
 20
12.02876251986051
 30
17.37139145397723
 11
37.65393925821164
 21
16.62337749092011
 31
0.8510777987311471
  0
LINE
  5
15A
330
F0
100
AcDbEntity
  8
LEVEL0
  6
SOLID
 62
     7
370
    18
100
AcDbLine
 10
92.63149149546575
 20
1.892189284739203
 30
53.81826900266471
 11
74.7770452705054
 21
6.676272914399197
 31
36.61670529977961
  0
LINE
  5
15B
330
F0
100
AcDbEntity
  8
LEVEL0
  6
SOLID
 62
     7
370
    18
100
AcDbLine
 10
122.683529695894
 20
9.94460727525611
 30
24.86514197800649
 11
94.04570505783875
 21
2.271126601940075
 31
52.45576890738657
  0
LINE
  5
15C
330
F0
100
AcDbEntity
  8
LEVEL0
  6
SOLID
 62
     7
370
    18
100
AcDbLine
 10
-96.69634916723231
 20
21.17062529732971
 30
-15.49892334460536
 11
-114.5507953921928
 21
25.95470892698972
 31
-32.70048704749055
  0
LINE
  5
15D
330
F0
100
AcDbEntity
  8
LEVEL0
  6
SOLID
 62
     7
370
    18
100
AcDbLine
 10
-114.5507953921927
 20
25.47299239862056
 30
-32.83446162080926
 11
-114.5507953921927
 21
25.95470892698977
 31
-32.7004870474906
  0
LINE
  5
15E
330
F0
100
AcDbEntity
  8
LEVEL0
  6
SOLID
 62
     7
370
    18
100
AcDbLine
 10
37.65393925821149
 20
16.14166096255091
 30
0.7171032254125365
 11
10.62211589939168
 21
8.898506961504443
 31
26.76045543321311
  0
LINE
  5
15F
330
F0
100
AcDbEntity
  8
LEVEL0
  6
SOLID
 62
     7
370
    18
100
AcDbLine
 10
57.62970582673165
 20
12.02876251986049
 30
17.37139145397726
 11
74.77704527050551
 21
7.434147548800881
 31
33.89170510922339
  0
LINE
  5
160
330
F0
100
AcDbEntity
  8
LEVEL0
  6
SOLID
 62
     7
370
    18
100
AcDbLine
 10
-2.474370574124805
 20
-4.076073461173365
 30
75.27764550329383
 11
-2.474370574124805
 21
-4.557789989542574
 31
75.14367092997517
  0
LINE
  5
161
330
F0
100
AcDbEntity
  8
LEVEL0
  6
SOLID
 62
     7
370
    18
100
AcDbLine
 10
44.0179002888907
 20
-0.807739100316482
 30
63.52608218152071
 11
26.87056084511685
 21
3.786875870743129
 31
47.00576852627457
  0
LINE
  5
162
330
F0
100
AcDbEntity
  8
LEVEL0
  6
SOLID
 62
     7
370
    18
100
AcDbLine
 10
-64.52299062324437
 20
29.03357462924625
 30
-43.77080032162464
 11
-36.59227276637566
 21
36.51758664396189
 31
-70.68017720336573
  0
LINE
  5
163
330
F0
100
AcDbEntity
  8
LEVEL0
  6
SOLID
 62
     7
370
    18
100
AcDbLine
 10
-68.23530122447386
 20
-1.802449557968618
 30
67.10264493162572
 11
-39.59747658641859
 21
5.871031115347427
 31
39.51201800224531
  0
LINE
  5
164
330
F0
100
AcDbEntity
  8
LEVEL0
  6
SOLID
 62
     7
370
    18
100
AcDbLine
 10
-20.34383051804912
 20
31.68211388096785
 30
-55.15986539414154
 11
-36.59227276637584
 21
36.03587011559272
 31
-70.81415177668447
  0
LINE
  5
165
330
F0
100
AcDbEntity
  8
LEVEL0
  6
SOLID
 62
     7
370
    18
100
AcDbLine
 10
-59.57324315493855
 20
11.22352072080879
 30
20.2667041564431
 11
-76.7205825987124
 21
15.8181356918684
 31
3.74639050119697
  0
LINE
  5
166
330
F0
100
AcDbEntity
  8
LEVEL0
  6
SOLID
 62
     7
370
    18
100
AcDbLine
 10
104.8290834709337
 20
14.72869090491615
 30
7.663578275121324
 11
122.6835296958941
 21
9.944607275256155
 31
24.86514197800642
  0
LINE
  5
167
330
F0
100
AcDbEntity
  8
LEVEL0
  6
SOLID
 62
     7
370
    18
100
AcDbLine
 10
-39.59747658641868
 20
5.389314586978308
 30
39.37804342892681
 11
-67.33640672642514
 21
-2.04330807266858
 31
66.10264568436642
  0
LINE
  5
168
330
F0
100
AcDbEntity
  8
LEVEL0
  6
SOLID
 62
     7
370
    18
100
AcDbLine
 10
-19.62171001789864
 20
1.276416144287893
 30
56.03233165749155
 11
-2.474370574124755
 21
-3.318198826771726
 31
72.55264531273772
  0
LINE
  5
169
330
F0
100
AcDbEntity
  8
LEVEL0
  6
SOLID
 62
     7
370
    18
100
AcDbLine
 10
-21.03592358027186
 20
0.4157622987178513
 30
57.26085717945104
 11
-48.77485372027832
 21
-7.016860360929037
 31
83.98545943489066
  0
LINE
  5
16A
330
F0
100
AcDbEntity
  8
LEVEL0
  6
SOLID
 62
     7
370
    18
100
AcDbLine
 10
57.62970582673165
 20
12.02876251986049
 30
17.37139145397726
 11
86.26753046478689
 21
19.70224319317653
 31
-10.21923547540282
  0
LINE
  5
16B
330
F0
100
AcDbEntity
  8
LEVEL0
  6
SOLID
 62
     7
370
    18
100
AcDbLine
 10
-38.00648632874891
 20
36.89652396116279
 30
-72.04267729864392
 11
-55.86093255370935
 21
41.68060759082299
 31
-89.24424100152893
  0
LINE
  5
16C
330
F0
100
AcDbEntity
  8
LEVEL0
  6
SOLID
 62
     7
370
    18
100
AcDbLine
 10
-45.96143761709743
 20
24.0600223409858
 30
-25.88798657110043
 11
-28.81409817332362
 21
19.4654073699262
 31
-9.367672915854332
  0
LINE
  5
16D
330
F0
100
AcDbEntity
  8
LEVEL0
  6
SOLID
 62
     7
370
    18
100
AcDbLine
 10
-25.80889435328106
 20
49.73302558133977
 30
-118.1973680261874
 11
-7.954448128320568
 21
44.94894195167956
 31
-100.9958043233023
  0
LINE
  5
16E
330
F0
100
AcDbEntity
  8
LEVEL0
  6
SOLID
 62
     7
370
    18
100
AcDbLine
 10
17.67817268969168
 20
21.97586709638141
 30
-18.39423604707123
 11
-10.25254516717704
 21
14.49185508166577
 31
8.515140834669864
  0
LINE
  5
16F
330
F0
100
AcDbEntity
  8
LEVEL0
  6
SOLID
 62
     7
370
    18
100
AcDbLine
 10
-36.5922727663758
 20
36.51758664396198
 30
-70.68017720336584
 11
-36.5922727663758
 21
36.03587011559276
 31
-70.81415177668451
  0
LINE
  5
170
330
F0
100
AcDbEntity
  8
LEVEL0
  6
SOLID
 62
     7
370
    18
100
AcDbLine
 10
-76.72058259871233
 20
15.81813569186845
 30
3.746390501196913
 11
-76.72058259871233
 21
15.33641916349924
 31
3.61241592787826
  0
LINE
  5
171
330
F0
100
AcDbEntity
  8
LEVEL0
  6
SOLID
 62
     7
370
    18
100
AcDbLine
 10
12.02131844019937
 20
39.59645234621844
 30
-81.75049047749988
 11
29.16865788397307
 21
35.0018373751587
 31
-65.23017682225372
  0
LINE
  5
172
330
F0
100
AcDbEntity
  8
LEVEL0
  6
SOLID
 62
     7
370
    18
100
AcDbLine
 10
47.73021089011991
 20
30.02828508689834
 30
-47.34736307172948
 11
19.09238625206467
 21
22.3548044135823
 31
-19.75673614234939
  0
LINE
  5
173
330
F0
100
AcDbEntity
  8
LEVEL0
  6
SOLID
 62
     7
370
    18
100
AcDbLine
 10
-12.56565322759877
 20
13.87205924976483
 30
8.87764168268886
 11
-28.81409817332379
 21
18.22581620715528
 31
-6.776647298616744
  0
LINE
  5
174
330
F0
100
AcDbEntity
  8
LEVEL0
  6
SOLID
 62
     7
370
    18
100
AcDbLine
 10
-21.03592358027163
 20
0.8974788270870917
 30
57.39483175276959
 11
-21.03592358027163
 21
0.4157622987178798
 31
57.26085717945094
  0
LINE
  5
175
330
F0
100
AcDbEntity
  8
LEVEL0
  6
SOLID
 62
     7
370
    18
100
AcDbLine
 10
73.36283170813238
 20
7.05521023160005
 30
35.25420520450146
 11
45.4321138512636
 21
-0.4288017831156132
 31
62.16358208624261
  0
LINE
  5
176
330
F0
100
AcDbEntity
  8
LEVEL0
  6
SOLID
 62
     7
370
    18
100
AcDbLine
 10
17.50139599439512
 20
-8.670688432233021
 30
91.79795915854001
 11
35.3558422193554
 21
-13.454772061893
 31
108.9995228614252
  0
LINE
  5
177
330
F0
100
AcDbEntity
  8
LEVEL0
  6
SOLID
 62
     7
370
    18
100
AcDbLine
 10
-7.954448128320678
 20
44.9489419516797
 30
-100.9958043233022
 11
-36.59227276637576
 21
37.27546127836342
 31
-73.40517739392197
  0
LINE
  5
178
330
F0
100
AcDbEntity
  8
LEVEL0
  6
SOLID
 62
     7
370
    18
100
AcDbLine
 10
12.02131844019925
 20
39.11473581784921
 30
-81.88446505081845
 11
-15.71760900240902
 21
31.68211388096758
 31
-55.15986539414169
  0
LINE
  5
179
330
F0
100
AcDbEntity
  8
LEVEL0
  6
SOLID
 62
     7
370
    18
100
AcDbLine
 10
83.95442240436489
 20
19.84032199567737
 30
-12.58173481794017
 11
67.70597745863988
 21
24.19407895306782
 31
-28.23602379924577
  0
LINE
  5
17A
330
F0
100
AcDbEntity
  8
LEVEL0
  6
SOLID
 62
     7
370
    18
100
AcDbLine
 10
9.723221401343153
 20
9.139365476204418
 30
27.76045468047229
 11
26.87056084511697
 21
4.544750505144815
 31
44.28076833571839
  0
LINE
  5
17B
330
F0
100
AcDbEntity
  8
LEVEL0
  6
SOLID
 62
     7
370
    18
100
AcDbLine
 10
91.73259699741686
 20
1.651330770039166
 30
52.8182697554055
 11
74.7770452705053
 21
6.194556386030008
 31
36.48273072646087
  0
LINE
  5
17C
330
F0
100
AcDbEntity
  8
LEVEL0
  6
SOLID
 62
     7
370
    18
100
AcDbLine
 10
74.77704527050548
 20
6.676272914399242
 30
36.61670529977954
 11
74.77704527050548
 21
6.19455638603003
 31
36.48273072646087
  0
LINE
  5
17D
330
F0
100
AcDbEntity
  8
LEVEL0
  6
SOLID
 62
     7
370
    18
100
AcDbLine
 10
63.28656007622408
 20
-5.970760047177336
 30
82.09014597968397
 11
35.35584221935517
 21
-13.45477206189303
 31
108.999522861425
  0
LINE
  5
17E
330
F0
100
AcDbEntity
  8
LEVEL0
  6
SOLID
 62
     7
370
    18
100
AcDbLine
 10
30.58287144634619
 20
34.62290005795799
 30
-63.86767672697563
 11
30.58287144634619
 21
34.14118352958877
 31
-64.0016513002943
  0
LINE
  5
17F
330
F0
100
AcDbEntity
  8
LEVEL0
  6
SOLID
 62
     7
370
    18
100
AcDbLine
 10
54.80127870198544
 20
12.02876251986051
 30
17.37139145397723
 11
26.87056084511671
 21
4.544750505144855
 31
44.28076833571834
  0
LINE
  5
180
330
F0
100
AcDbEntity
  8
LEVEL0
  6
SOLID
 62
     7
370
    18
100
AcDbLine
 10
-27.39988461095061
 20
19.08647005272533
 30
-8.005172820576181
 11
0.5308332459180995
 21
26.57048206744098
 31
-34.91454970231727
  0
LINE
  5
181
330
F0
100
AcDbEntity
  8
LEVEL0
  6
SOLID
 62
     7
370
    18
100
AcDbLine
 10
-48.78986474184376
 20
24.06002234098579
 30
-25.88798657110041
 11
-65.93720418561759
 21
28.65463731204539
 31
-42.40830022634653
  0
LINE
  5
182
330
F0
100
AcDbEntity
  8
LEVEL0
  6
SOLID
 62
     7
370
    18
100
AcDbLine
 10
-1.060157011751699
 20
-3.697136143972564
 30
73.91514540801577
 11
16.08718243202202
 21
-8.291751115032227
 31
90.43545906326196
  0
LINE
  5
183
330
F0
100
AcDbEntity
  8
LEVEL0
  6
SOLID
 62
     7
370
    18
100
AcDbLine
 10
-28.81409817332371
 20
18.70753273552453
 30
-6.642672725298109
 11
-28.81409817332371
 21
18.22581620715532
 31
-6.776647298616773
  0
LINE
  5
184
330
F0
100
AcDbEntity
  8
LEVEL0
  6
SOLID
 62
     7
370
    18
100
AcDbLine
 10
17.67817268969168
 20
21.97586709638141
 30
-18.39423604707123
 11
0.5308332459178828
 21
26.57048206744101
 31
-34.91454970231732
  0
LINE
  5
185
330
F0
100
AcDbEntity
  8
LEVEL0
  6
SOLID
 62
     7
370
    18
100
AcDbLine
 10
-88.21106779299379
 20
3.550040047492637
 30
47.85733108582345
 11
-105.3584072367676
 21
8.144655018552248
 31
31.33701743057731
  0
LINE
  5
186
330
F0
100
AcDbEntity
  8
LEVEL0
  6
SOLID
 62
     7
370
    18
100
AcDbLine
 10
74.77704527050537
 20
6.194556386029994
 30
36.48273072646101
 11
47.74522191168546
 21
-1.048597615016496
 31
62.5260829342616
  0
LINE
  5
187
330
F0
100
AcDbEntity
  8
LEVEL0
  6
SOLID
 62
     7
370
    18
100
AcDbLine
 10
16.08718243202202
 20
-9.049625749433815
 30
93.16045925381806
 11
16.08718243202202
 21
-9.531342277803027
 31
93.0264846804994
  0
LINE
  5
188
330
F0
100
AcDbEntity
  8
LEVEL0
  6
SOLID
 62
     7
370
    18
100
AcDbLine
 10
-54.44671899133607
 20
42.05954490802364
 30
-90.6067410968072
 11
-25.80889435328105
 21
49.7330255813399
 31
-118.1973680261873
  0
LINE
  5
189
330
F0
100
AcDbEntity
  8
LEVEL0
  6
SOLID
 62
     7
370
    18
100
AcDbLine
 10
9.708213077175742
 20
39.73453042595361
 30
-84.11298722127437
 11
-6.540234565947447
 21
44.08828810610976
 31
-99.7672788013427
  0
LINE
  5
18A
330
F0
100
AcDbEntity
  8
LEVEL0
  6
SOLID
 62
     7
370
    18
100
AcDbLine
 10
-8.838331604803784
 20
14.11291776446488
 30
9.87764092994805
 11
8.309007838970103
 21
9.51830279340526
 31
26.39795458519417
  0
LINE
  5
18B
330
F0
100
AcDbEntity
  8
LEVEL0
  6
SOLID
 62
     7
370
    18
100
AcDbLine
 10
-1.782277511902294
 20
26.7085615927074
 30
-37.27705164361731
 11
-18.03071976022903
 21
31.06231782733228
 31
-52.93133802616025
  0
LINE
  5
18C
330
F0
100
AcDbEntity
  8
LEVEL0
  6
SOLID
 62
     7
370
    18
100
AcDbLine
 10
1.945046808291067
 20
26.94941938464187
 30
-36.27704979759547
 11
30.5828714463463
 21
34.62290005795791
 31
-63.86767672697555
  0
LINE
  5
18D
330
F0
100
AcDbEntity
  8
LEVEL0
  6
SOLID
 62
     7
370
    18
100
AcDbLine
 10
66.29176389626673
 20
25.05473279863788
 30
-29.46454932120523
 11
37.65393925821155
 21
17.38125212532186
 31
-1.873922391825204
  0
LINE
  5
18E
330
F0
100
AcDbEntity
  8
LEVEL0
  6
SOLID
 62
     7
370
    18
100
AcDbLine
 10
5.995898429848921
 20
8.89850732288717
 30
26.76045413383174
 11
-10.25254516717695
 21
13.25226391889483
 31
11.10616645190747
  0
LINE
  5
18F
330
F0
100
AcDbEntity
  8
LEVEL0
  6
SOLID
 62
     7
370
    18
100
AcDbLine
 10
44.0179002888907
 20
-0.807739100316482
 30
63.52608218152071
 11
16.08718243202178
 21
-8.291751115032184
 31
90.43545906326172
  0
LINE
  5
190
330
F0
100
AcDbEntity
  8
LEVEL0
  6
SOLID
 62
     7
370
    18
100
AcDbLine
 10
28.28477440748998
 20
4.165813187943961
 30
45.64326843099653
 11
56.21549226435876
 21
11.64982520265963
 31
18.73389154925537
  0
LINE
  5
191
330
F0
100
AcDbEntity
  8
LEVEL0
  6
SOLID
 62
     7
370
    18
100
AcDbLine
 10
-19.62171001789864
 20
1.276416144287893
 30
56.03233165749155
 11
8.309007838970135
 21
8.760428159003556
 31
29.1229547757504
  0
LINE
  5
192
330
F0
100
AcDbEntity
  8
LEVEL0
  6
SOLID
 62
     7
370
    18
100
AcDbLine
 10
-30.22831173569682
 20
19.08647005272533
 30
-8.005172820576167
 11
-58.15902959256556
 21
11.60245803800968
 31
18.90420406116495
  0
LINE
  5
193
330
F0
100
AcDbEntity
  8
LEVEL0
  6
SOLID
 62
     7
370
    18
100
AcDbLine
 10
-16.61650619785576
 20
31.92297167290233
 30
-54.1598635481197
 11
12.02131844019948
 21
39.59645234621836
 31
-81.75049047749978
  0
LINE
  5
194
330
F0
100
AcDbEntity
  8
LEVEL0
  6
SOLID
 62
     7
370
    18
100
AcDbLine
 10
-12.55064220603322
 20
-16.72310642274999
 30
120.7510861831984
 11
16.08718243202204
 21
-9.049625749433954
 31
93.16045925381803
  0
LINE
  5
195
330
F0
100
AcDbEntity
  8
LEVEL0
  6
SOLID
 62
     7
370
    18
100
AcDbLine
 10
-97.59524096788277
 20
20.92976605986408
 30
-16.49891999310182
 11
-114.5507953921927
 21
25.4729923986205
 31
-32.83446162080915
  0
LINE
  5
196
330
F0
100
AcDbEntity
  8
LEVEL0
  6
SOLID
 62
     7
370
    18
100
AcDbLine
 10
-11.66675872955
 20
14.11291776446488
 30
9.877640929948043
 11
-28.8140981733238
 21
18.70753273552448
 31
-6.642672725298041
  0
LINE
  5
197
330
F0
100
AcDbEntity
  8
LEVEL0
  6
SOLID
 62
     7
370
    18
100
AcDbLine
 10
-19.44493332260208
 20
31.92297167290233
 30
-54.15986354811969
 11
-47.37565117947079
 21
24.43895965818668
 31
-27.2504866663786
  0
LINE
  5
198
330
F0
100
AcDbEntity
  8
LEVEL0
  6
SOLID
 62
     7
370
    18
100
AcDbLine
 10
17.50139599439512
 20
-8.670688432233021
 30
91.79795915854001
 11
45.43211385126403
 21
-1.186676417517321
 31
64.88858227679901
  0
LINE
  5
199
330
F0
100
AcDbEntity
  8
LEVEL0
  6
SOLID
 62
     7
370
    18
100
AcDbLine
 10
35.3408298490906
 20
16.76145665480371
 30
-1.511422843187532
 11
19.09238625206472
 21
21.11521325081137
 31
-17.1657105251118
  0
LINE
  5
19A
330
F0
100
AcDbEntity
  8
LEVEL0
  6
SOLID
 62
     7
370
    18
100
AcDbLine
 10
-16.61650619785576
 20
31.92297167290233
 30
-54.1598635481197
 11
0.5308332459180569
 21
27.32835670184273
 31
-37.6395498928736
  0
LINE
  5
19B
330
F0
100
AcDbEntity
  8
LEVEL0
  6
SOLID
 62
     7
370
    18
100
AcDbLine
 10
12.02131844019937
 20
39.59645234621844
 30
-81.75049047749988
 11
12.02131844019937
 21
39.11473581784924
 31
-81.88446505081853
  0
LINE
  5
19C
330
F0
100
AcDbEntity
  8
LEVEL0
  6
SOLID
 62
     7
370
    18
100
AcDbLine
 10
-6.540234565947571
 20
44.57000463447889
 30
-99.6333042280241
 11
-6.540234565947571
 21
44.08828810610969
 31
-99.76727880134277
  0
LINE
  5
19D
330
F0
100
AcDbEntity
  8
LEVEL0
  6
SOLID
 62
     7
370
    18
100
AcDbLine
 10
46.83131369467287
 20
29.78742729496385
 30
-48.34736491775131
 11
30.58287144634614
 21
34.14118352958872
 31
-64.00165130029424
  0
LINE
  5
19E
330
F0
100
AcDbEntity
  8
LEVEL0
  6
SOLID
 62
     7
370
    18
100
AcDbLine
 10
-27.39988461095061
 20
19.08647005272533
 30
-8.005172820576181
 11
-10.25254516717681
 21
14.49185508166573
 31
8.515140834669918
  0
LINE
  5
19F
330
F0
100
AcDbEntity
  8
LEVEL0
  6
SOLID
 62
     7
370
    18
100
AcDbLine
 10
-19.44493332260208
 20
31.92297167290233
 30
-54.15986354811969
 11
-36.59227276637588
 21
36.51758664396193
 31
-70.68017720336577
  0
LINE
  5
1A0
330
F0
100
AcDbEntity
  8
LEVEL0
  6
SOLID
 62
     7
370
    18
100
AcDbLine
 10
-93.86792204248604
 20
21.17062529732971
 30
-15.49892334460538
 11
-76.72058259871226
 21
16.57601032627012
 31
1.02139031064074
  0
LINE
  5
1A1
330
F0
100
AcDbEntity
  8
LEVEL0
  6
SOLID
 62
     7
370
    18
100
AcDbLine
 10
121.7846342706144
 20
9.703749009006728
 30
23.86514183742262
 11
104.8290834709336
 21
14.24697437654688
 31
7.529603701802678
  0
LINE
  5
1A2
330
F0
100
AcDbEntity
  8
LEVEL0
  6
SOLID
 62
     7
370
    18
100
AcDbLine
 10
39.06815282058483
 20
17.00231480812096
 30
-0.5114222965469821
 11
56.21549226435862
 21
12.40769983706136
 31
16.00889135869911
  0
LINE
  5
1A3
330
F0
100
AcDbEntity
  8
LEVEL0
  6
SOLID
 62
     7
370
    18
100
AcDbLine
 10
28.28477440748998
 20
4.165813187943961
 30
45.64326843099653
 11
45.43211385126378
 21
-0.4288017831156363
 31
62.16358208624261
  0
LINE
  5
1A4
330
F0
100
AcDbEntity
  8
LEVEL0
  6
SOLID
 62
     7
370
    18
100
AcDbLine
 10
-38.90537812939942
 20
36.65566472369716
 30
-73.04267394714037
 11
-55.86093255370919
 21
41.19889106245372
 31
-89.37821557484776
  0
LINE
  5
1A5
330
F0
100
AcDbEntity
  8
LEVEL0
  6
SOLID
 62
     7
370
    18
100
AcDbLine
 10
29.16865788397308
 20
35.0018373751588
 30
-65.23017682225371
 11
0.5308332459180178
 21
27.32835670184252
 31
-37.6395498928735
  0
LINE
  5
1A6
330
F0
100
AcDbEntity
  8
LEVEL0
  6
SOLID
 62
     7
370
    18
100
AcDbLine
 10
-8.853339928971081
 20
44.70808271421406
 30
-101.9958009717986
 11
-25.80889435328105
 21
49.25130905297067
 31
-118.3313425995058
  0
LINE
  5
1A7
330
F0
100
AcDbEntity
  8
LEVEL0
  6
SOLID
 62
     7
370
    18
100
AcDbLine
 10
-75.30636903633922
 20
16.19707300906926
 30
2.383890405918848
 11
-58.15902959256537
 21
11.60245803800965
 31
18.90420406116498
  0
LINE
  5
1A8
330
F0
100
AcDbEntity
  8
LEVEL0
  6
SOLID
 62
     7
370
    18
100
AcDbLine
 10
-113.1365818298195
 20
26.33364624419058
 30
-34.06298714276868
 11
-85.20586397295084
 21
33.81765825890622
 31
-60.97236402450976
  0
LINE
  5
1A9
330
F0
100
AcDbEntity
  8
LEVEL0
  6
SOLID
 62
     7
370
    18
100
AcDbLine
 10
-0.8833803164551455
 20
26.94941938464187
 30
-36.27704979759546
 11
-18.03071976022894
 21
31.54403435570147
 31
-52.79736345284154
  0
LINE
  5
1AA
330
F0
100
AcDbEntity
  8
LEVEL0
  6
SOLID
 62
     7
370
    18
100
AcDbLine
 10
53.90238319241223
 20
11.78790427619756
 30
16.37139123218202
 11
37.65393925821164
 21
16.1416609625509
 31
0.7171032254124459
  0
LINE
  5
1AB
330
F0
100
AcDbEntity
  8
LEVEL0
  6
SOLID
 62
     7
370
    18
100
AcDbLine
 10
-47.37565117947076
 20
23.19936849541575
 30
-24.65946104914092
 11
-74.40747352676628
 21
15.95621476540636
 31
1.383890184123636
  0
LINE
  5
1AC
330
F0
100
AcDbEntity
  8
LEVEL0
  6
SOLID
 62
     7
370
    18
100
AcDbLine
 10
-58.15902959256545
 20
10.844583403608
 30
21.62920425172115
 11
-58.15902959256545
 21
10.36286687523879
 31
21.4952296784025
  0
LINE
  5
1AD
330
F0
100
AcDbEntity
  8
LEVEL0
  6
SOLID
 62
     7
370
    18
100
AcDbLine
 10
-41.01169014879167
 20
6.249968432548343
 30
38.14951790696732
 11
-69.64951478684706
 21
-1.423512240767734
 31
65.74014483634755
  0
LINE
  5
1AE
330
F0
100
AcDbEntity
  8
LEVEL0
  6
SOLID
 62
     7
370
    18
100
AcDbLine
 10
-39.59747658641857
 20
5.871031115347542
 30
39.51201800224537
 11
-39.59747658641857
 21
5.38931458697833
 31
39.37804342892672
  0
LINE
  5
1AF
330
F0
100
AcDbEntity
  8
LEVEL0
  6
SOLID
 62
     7
370
    18
100
AcDbLine
 10
84.85331690241367
 20
20.08118051037742
 30
-11.581735570681
 11
56.21549226435843
 21
12.40769983706139
 31
16.00889135869908
  0
LINE
  5
1B0
330
F0
100
AcDbEntity
  8
LEVEL0
  6
SOLID
 62
     7
370
    18
100
AcDbLine
 10
45.43211385126381
 20
-1.18667641751729
 30
64.88858227679879
 11
45.43211385126381
 21
-1.668392945886496
 31
64.75460770348013
  0
LINE
  5
1B1
330
F0
100
AcDbEntity
  8
LEVEL0
  6
SOLID
 62
     7
370
    18
100
AcDbLine
 10
49.14442445249301
 20
29.64934776969753
 30
-45.9848629764514
 11
49.14442445249301
 21
29.16763124132832
 31
-46.11883754977006
  0
LINE
  5
1B2
330
F0
100
AcDbEntity
  8
LEVEL0
  6
SOLID
 62
     7
370
    18
100
AcDbLine
 10
25.45634728274376
 20
4.165813187943968
 30
45.6432684309965
 11
-2.474370574124968
 21
-3.318198826771684
 31
72.55264531273761
  0
LINE
  5
1B3
330
F0
100
AcDbEntity
  8
LEVEL0
  6
SOLID
 62
     7
370
    18
100
AcDbLine
 10
26.87056084511676
 20
3.305159342373926
 30
46.87179395295603
 11
-0.1612615021787605
 21
-3.937994387635467
 31
72.91514518622058
  0
LINE
  5
1B4
330
F0
100
AcDbEntity
  8
LEVEL0
  6
SOLID
 62
     7
370
    18
100
AcDbLine
 10
-76.72058259871244
 20
15.33641916349922
 30
3.612415927878331
 11
-104.4595127387189
 21
7.903796503852334
 31
30.33701818331795
  0
LINE
  5
1B5
330
F0
100
AcDbEntity
  8
LEVEL0
  6
SOLID
 62
     7
370
    18
100
AcDbLine
 10
-56.74481603019234
 20
11.22352072080881
 30
20.26670415644308
 11
-39.59747658641849
 21
6.628905749749198
 31
36.78701781168921
  0
LINE
  5
1B6
330
F0
100
AcDbEntity
  8
LEVEL0
  6
SOLID
 62
     7
370
    18
100
AcDbLine
 10
86.26753046478677
 20
19.70224319317661
 30
-10.21923547540291
 11
86.26753046478677
 21
19.2205266648074
 31
-10.35321004872158
  0
LINE
  5
1B7
330
F0
100
AcDbEntity
  8
LEVEL0
  6
SOLID
 62
     7
370
    18
100
AcDbLine
 10
14.67296886964891
 20
-8.670688432233021
 30
91.79795915854001
 11
-13.96485576840636
 21
-16.34416910554906
 31
119.3885860879204
  0
LINE
  5
1B8
330
F0
100
AcDbEntity
  8
LEVEL0
  6
SOLID
 62
     7
370
    18
100
AcDbLine
 10
36.23972569583862
 20
17.00231480812096
 30
-0.5114222965469963
 11
19.09238625206475
 21
21.59692977918057
 31
-17.03173595179311
  0
LINE
  5
1B9
330
F0
100
AcDbEntity
  8
LEVEL0
  6
SOLID
 62
     7
370
    18
100
AcDbLine
 10
-31.11219521218004
 20
-11.74955413448953
 30
102.8682724326742
 11
-2.474370574124787
 21
-4.076073461173489
 31
75.2776455032938
  0
LINE
  5
1BA
330
F0
100
AcDbEntity
  8
LEVEL0
  6
SOLID
 62
     7
370
    18
100
AcDbLine
 10
-67.35141774799058
 20
29.03357462924624
 30
-43.77080032162463
 11
-85.20586397295102
 21
33.81765825890626
 31
-60.97236402450982
  0
LINE
  5
1BB
330
F0
100
AcDbEntity
  8
LEVEL0
  6
SOLID
 62
     7
370
    18
100
AcDbLine
 10
10.60710487782615
 20
39.97538966341925
 30
-83.11299057277796
 11
-18.03071976022887
 21
32.30190899010299
 31
-55.5223636433978
  0
LINE
  5
1BC
330
F0
100
AcDbEntity
  8
LEVEL0
  6
SOLID
 62
     7
370
    18
100
AcDbLine
 10
-123.9199602429144
 20
13.11820730681275
 30
13.45420368005302
 11
-95.28213560485908
 21
20.79168798012882
 31
-14.13642324932719
  0
LINE
  5
1BD
330
F0
100
AcDbEntity
  8
LEVEL0
  6
SOLID
 62
     7
370
    18
100
AcDbLine
 10
43.11900444214268
 20
-1.048597253633737
 30
62.52608163488017
 11
26.87056084511681
 21
3.305159342373924
 31
46.8717939529559
  0
LINE
  5
1BE
330
F0
100
AcDbEntity
  8
LEVEL0
  6
SOLID
 62
     7
370
    18
100
AcDbLine
 10
-113.1365818298195
 20
26.33364624419058
 30
-34.06298714276868
 11
-95.28213560485909
 21
21.54956261453056
 31
-16.86142343988349
  0
LINE
  5
1BF
330
F0
100
AcDbEntity
  8
LEVEL0
  6
SOLID
 62
     7
370
    18
100
AcDbLine
 10
-6.540234565947571
 20
44.08828810610967
 30
-99.7672788013427
 11
-34.27916200855586
 21
36.65566616922805
 31
-73.04267914466594
  0
LINE
  5
1C0
330
F0
100
AcDbEntity
  8
LEVEL0
  6
SOLID
 62
     7
370
    18
100
AcDbLine
 10
-85.20586397295097
 20
33.33594173053709
 30
-61.10633859782853
 11
-85.20586397295097
 21
33.81765825890631
 31
-60.97236402450986
  0
LINE
  5
1C1
330
F0
100
AcDbEntity
  8
LEVEL0
  6
SOLID
 62
     7
370
    18
100
AcDbLine
 10
-83.7916504105778
 20
34.19659557610711
 30
-62.33486411978794
 11
-65.93720418561742
 21
29.41251194644693
 31
-45.13330041690281
  0
LINE
  5
1C2
330
F0
100
AcDbEntity
  8
LEVEL0
  6
SOLID
 62
     7
370
    18
100
AcDbLine
 10
-86.79685423062074
 20
3.171102730291835
 30
49.21983118110148
 11
-58.15902959256533
 21
10.84458340360792
 31
21.62920425172123
  0
LINE
  5
1C3
330
F0
100
AcDbEntity
  8
LEVEL0
  6
SOLID
 62
     7
370
    18
100
AcDbLine
 10
67.70597745863995
 20
24.67579548143707
 30
-28.10204922592715
 11
84.85331690241375
 21
20.08118051037747
 31
-11.58173557068107
  0
LINE
  5
1C4
330
F0
100
AcDbEntity
  8
LEVEL0
  6
SOLID
 62
     7
370
    18
100
AcDbLine
 10
-6.540234565947571
 20
44.57000463447889
 30
-99.6333042280241
 11
10.60710487782611
 21
39.97538966341915
 31
-83.11299057277796
  0
LINE
  5
1C5
330
F0
100
AcDbEntity
  8
LEVEL0
  6
SOLID
 62
     7
370
    18
100
AcDbLine
 10
92.63149149546575
 20
1.892189284739203
 30
53.81826900266471
 11
64.70077363859703
 21
-5.591822729976447
 31
80.72764588440582
  0
LINE
  5
1C6
330
F0
100
AcDbEntity
  8
LEVEL0
  6
SOLID
 62
     7
370
    18
100
AcDbLine
 10
-64.52299062324437
 20
29.03357462924625
 30
-43.77080032162464
 11
-47.37565117947057
 21
24.43895965818665
 31
-27.25048666637856
  0
LINE
  5
1C7
330
F0
100
AcDbEntity
  8
LEVEL0
  6
SOLID
 62
     7
370
    18
100
AcDbLine
 10
-75.30636903633922
 20
16.19707300906926
 30
2.383890405918848
 11
-47.37565117947052
 21
23.6810850237849
 31
-24.52548647582225
  0
LINE
  5
1C8
330
F0
100
AcDbEntity
  8
LEVEL0
  6
SOLID
 62
     7
370
    18
100
AcDbLine
 10
-95.2821356048592
 20
20.79168798012891
 30
-14.1364232493273
 11
-95.2821356048592
 21
20.30997145175969
 31
-14.27039782264596
  0
LINE
  5
1C9
330
F0
100
AcDbEntity
  8
LEVEL0
  6
SOLID
 62
     7
370
    18
100
AcDbLine
 10
-59.57324315493855
 20
11.22352072080879
 30
20.2667041564431
 11
-88.21106779299393
 21
3.550040047492718
 31
47.85733108582332
  0
LINE
  5
1CA
330
F0
100
AcDbEntity
  8
LEVEL0
  6
SOLID
 62
     7
370
    18
100
AcDbLine
 10
-10.25254516717689
 20
13.73398044726407
 30
11.24014102522613
 11
-10.25254516717689
 21
13.25226391889487
 31
11.10616645190745
  0
LINE
  5
1CB
330
F0
100
AcDbEntity
  8
LEVEL0
  6
SOLID
 62
     7
370
    18
100
AcDbLine
 10
-105.3584072367676
 20
8.1446550185523
 30
31.33701743057725
 11
-76.72058259871218
 21
15.81813569186837
 31
3.74639050119703
  0
LINE
  5
1CC
330
F0
100
AcDbEntity
  8
LEVEL0
  6
SOLID
 62
     7
370
    18
100
AcDbLine
 10
36.23972569583862
 20
17.00231480812096
 30
-0.5114222965469963
 11
8.309007838969919
 21
9.518302793405315
 31
26.39795458519412
  0
LINE
  5
1CD
330
F0
100
AcDbEntity
  8
LEVEL0
  6
SOLID
 62
     7
370
    18
100
AcDbLine
 10
0.5308332459178473
 20
26.08876553907182
 30
-35.04852427563594
 11
-26.50099011290206
 21
18.84561153802533
 31
-9.005172067835346
  0
LINE
  5
1CE
330
F0
100
AcDbEntity
  8
LEVEL0
  6
SOLID
 62
     7
370
    18
100
AcDbLine
 10
-3.888584136497911
 20
-3.697136143972564
 30
73.91514540801577
 11
-32.52640877455318
 21
-11.37061681728861
 31
101.5057723373962
  0
LINE
  5
1CF
330
F0
100
AcDbEntity
  8
LEVEL0
  6
SOLID
 62
     7
370
    18
100
AcDbLine
 10
39.06815282058483
 20
17.00231480812096
 30
-0.5114222965469821
 11
67.70597745864006
 21
24.67579548143699
 31
-28.10204922592706
  0
LINE
  5
1D0
330
F0
100
AcDbEntity
  8
LEVEL0
  6
SOLID
 62
     7
370
    18
100
AcDbLine
 10
-0.8833803164551455
 20
26.94941938464187
 30
-36.27704979759546
 11
-28.81409817332385
 21
19.46540736992623
 31
-9.367672915854374
  0
LINE
  5
1D1
330
F0
100
AcDbEntity
  8
LEVEL0
  6
SOLID
 62
     7
370
    18
100
AcDbLine
 10
-31.12720893114397
 20
18.84561226079086
 30
-9.005174666598045
 11
-47.3756511794707
 21
23.19936849541574
 31
-24.65946104914098
  0
LINE
  5
1D2
330
F0
100
AcDbEntity
  8
LEVEL0
  6
SOLID
 62
     7
370
    18
100
AcDbLine
 10
-41.91058464684045
 20
6.009109917848299
 30
37.14951865970814
 11
-58.15902959256549
 21
10.36286687523875
 31
21.4952296784025
  0
LINE
  5
1D3
330
F0
100
AcDbEntity
  8
LEVEL0
  6
SOLID
 62
     7
370
    18
100
AcDbLine
 10
-67.35141774799058
 20
29.03357462924624
 30
-43.77080032162463
 11
-95.28213560485928
 21
21.5495626145306
 31
-16.86142343988356
  0
LINE
  5
1D4
330
F0
100
AcDbEntity
  8
LEVEL0
  6
SOLID
 62
     7
370
    18
100
AcDbLine
 10
20.506599814438
 20
21.97586709638141
 30
-18.39423604707122
 11
37.65393925821181
 21
17.38125212532182
 31
-1.873922391825126
  0
LINE
  5
1D5
330
F0
100
AcDbEntity
  8
LEVEL0
  6
SOLID
 62
     7
370
    18
100
AcDbLine
 10
76.19125883287859
 20
7.055210231600043
 30
35.25420520450147
 11
104.8290834709338
 21
14.72869090491607
 31
7.663578275121399
  0
LINE
  5
1D6
330
F0
100
AcDbEntity
  8
LEVEL0
  6
SOLID
 62
     7
370
    18
100
AcDbLine
 10
-78.13479616108543
 20
16.19707300906925
 30
2.383890405918869
 11
-106.7726207991408
 21
8.52359233575318
 31
29.9745173352991
  0
LINE
  5
1D7
330
F0
100
AcDbEntity
  8
LEVEL0
  6
SOLID
 62
     7
370
    18
100
AcDbLine
 10
76.19125883287859
 20
7.055210231600043
 30
35.25420520450147
 11
94.04570505783896
 21
2.271126601940045
 31
52.45576890738658
  0
LINE
  5
1D8
330
F0
100
AcDbEntity
  8
LEVEL0
  6
SOLID
 62
     7
370
    18
100
AcDbLine
 10
24.55745177317056
 20
3.924954944281019
 30
44.6432682092013
 11
8.309007838969944
 21
8.278711630634366
 31
28.98898020243173
  0
LINE
  5
1D9
330
F0
100
AcDbEntity
  8
LEVEL0
  6
SOLID
 62
     7
370
    18
100
AcDbLine
 10
6.89479427659694
 20
9.139365476204432
 30
27.76045468047226
 11
-10.25254516717695
 21
13.73398044726405
 31
11.24014102522618
  0
LINE
  5
1DA
330
F0
100
AcDbEntity
  8
LEVEL0
  6
SOLID
 62
     7
370
    18
100
AcDbLine
 10
-10.252545167177
 20
13.25226391889484
 30
11.10616645190755
 11
-37.28436751447248
 21
6.009110188885459
 31
37.14951768517214
  0
LINE
  5
1DB
330
F0
100
AcDbEntity
  8
LEVEL0
  6
SOLID
 62
     7
370
    18
100
AcDbLine
 10
-45.96143761709743
 20
24.0600223409858
 30
-25.88798657110043
 11
-18.03071976022873
 21
31.54403435570144
 31
-52.79736345284151
  0
LINE
  5
1DC
330
F0
100
AcDbEntity
  8
LEVEL0
  6
SOLID
 62
     7
370
    18
100
AcDbLine
 10
-83.7916504105778
 20
34.19659557610711
 30
-62.33486411978794
 11
-55.86093255370916
 21
41.68060759082302
 31
-89.24424100152896
  0
LINE
  5
1DD
330
F0
100
AcDbEntity
  8
LEVEL0
  6
SOLID
 62
     7
370
    18
100
AcDbLine
 10
-25.80889435328106
 20
49.25130905297056
 30
-118.3313425995061
 11
-53.54782449328737
 21
41.81868639332343
 31
-91.60674034406634
  0
LINE
  5
1DE
330
F0
100
AcDbEntity
  8
LEVEL0
  6
SOLID
 62
     7
370
    18
100
AcDbLine
 10
-11.66675872955
 20
14.11291776446488
 30
9.877640929948043
 11
-39.59747658641867
 21
6.628905749749245
 31
36.78701781168917
  0
LINE
  5
1DF
330
F0
100
AcDbEntity
  8
LEVEL0
  6
SOLID
 62
     7
370
    18
100
AcDbLine
 10
-95.28213560485926
 20
20.30997145175969
 30
-14.27039782264591
 11
-123.0210657448657
 21
12.8773487921128
 31
12.45420443279371
  0
LINE
  5
1E0
330
F0
100
AcDbEntity
  8
LEVEL0
  6
SOLID
 62
     7
370
    18
100
AcDbLine
 10
-125.3341738052875
 20
13.49714462401354
 30
12.09170358477498
 11
-143.188620030248
 21
18.28122825367358
 31
-5.109860118110156
  0
LINE
  5
1E1
330
F0
100
AcDbEntity
  8
LEVEL0
  6
SOLID
 62
     7
370
    18
100
AcDbLine
 10
46.84632741363691
 20
-0.8077391003164891
 30
63.52608218152074
 11
74.77704527050562
 21
6.676272914399155
 31
36.61670529977965
  0
LINE
  5
1E2
330
F0
100
AcDbEntity
  8
LEVEL0
  6
SOLID
 62
     7
370
    18
100
AcDbLine
 10
63.28656007622408
 20
-5.970760047177336
 30
82.09014597968397
 11
45.43211385126381
 21
-1.186676417517363
 31
64.88858227679876
  0
LINE
  5
1E3
330
F0
100
AcDbEntity
  8
LEVEL0
  6
SOLID
 62
     7
370
    18
100
AcDbLine
 10
16.7792781916429
 20
21.73500858168137
 30
-19.39423529433041
 11
0.5308332459178899
 21
26.08876553907182
 31
-35.04852427563601
  0
LINE
  5
1E4
330
F0
100
AcDbEntity
  8
LEVEL0
  6
SOLID
 62
     7
370
    18
100
AcDbLine
 10
-35.17805920400269
 20
36.89652396116279
 30
-72.04267729864392
 11
-6.540234565947635
 21
44.57000463447906
 31
-99.63330422802412
  0
LINE
  5
1E5
330
F0
100
AcDbEntity
  8
LEVEL0
  6
SOLID
 62
     7
370
    18
100
AcDbLine
 10
-58.15902959256556
 20
10.36286687523877
 30
21.49522967840257
 11
-85.89795973257202
 21
2.930244215591877
 31
48.21983193384219
  0
LINE
  5
1E6
330
F0
100
AcDbEntity
  8
LEVEL0
  6
SOLID
 62
     7
370
    18
100
AcDbLine
 10
0.530833245917961
 20
26.57048206744106
 30
-34.91454970231738
 11
0.530833245917961
 21
26.08876553907185
 31
-35.04852427563604
  0
LINE
  5
1E7
330
F0
100
AcDbEntity
  8
LEVEL0
  6
SOLID
 62
     7
370
    18
100
AcDbLine
 10
-55.86093255370923
 20
41.19889106245363
 30
-89.37821557484779
 11
-55.86093255370923
 21
41.68060759082283
 31
-89.2442410015291
  0
LINE
  5
1E8
330
F0
100
AcDbEntity
  8
LEVEL0
  6
SOLID
 62
     7
370
    18
100
AcDbLine
 10
-79.03369335653252
 20
15.95621521713478
 30
1.383888559897002
 11
-95.28213560485922
 21
20.30997145175965
 31
-14.2703978226459
  0
LINE
  5
1E9
330
F0
100
AcDbEntity
  8
LEVEL0
  6
SOLID
 62
     7
370
    18
100
AcDbLine
 10
-22.45013714264473
 20
1.276416144287893
 30
56.03233165749154
 11
-39.5974765864186
 21
5.871031115347508
 31
39.51201800224539
  0
LINE
  5
1EA
330
F0
100
AcDbEntity
  8
LEVEL0
  6
SOLID
 62
     7
370
    18
100
AcDbLine
 10
-85.20586397295097
 20
33.33594173053709
 30
-61.10633859782852
 11
-112.2376846343725
 21
26.09278845225591
 31
-35.06298898879065
  0
LINE
  5
1EB
330
F0
100
AcDbEntity
  8
LEVEL0
  6
SOLID
 62
     7
370
    18
100
AcDbLine
 10
-1.060157011751699
 20
-3.697136143972564
 30
73.91514540801577
 11
26.87056084511688
 21
3.786875870743046
 31
47.00576852627454
  0
LINE
  5
1EC
330
F0
100
AcDbEntity
  8
LEVEL0
  6
SOLID
 62
     7
370
    18
100
AcDbLine
 10
-143.188620030248
 20
18.28122825367359
 30
-5.109860118110191
 11
-114.5507953921926
 21
25.95470892698967
 31
-32.70048704749048
  0
LINE
  5
1ED
330
F0
100
AcDbEntity
  8
LEVEL0
  6
SOLID
 62
     7
370
    18
100
AcDbLine
 10
-65.93720418561753
 20
28.17292078367622
 30
-42.54227479966517
 11
-92.96902653291308
 21
20.92976705366682
 31
-16.49892356640058
  0
LINE
  5
1EE
330
F0
100
AcDbEntity
  8
LEVEL0
  6
SOLID
 62
     7
370
    18
100
AcDbLine
 10
73.36283170813238
 20
7.05521023160005
 30
35.25420520450146
 11
56.21549226435857
 21
11.64982520265965
 31
18.73389154925537
  0
LINE
  5
1EF
330
F0
100
AcDbEntity
  8
LEVEL0
  6
SOLID
 62
     7
370
    18
100
AcDbLine
 10
6.89479427659694
 20
9.139365476204432
 30
27.76045468047226
 11
-21.03592358027185
 21
1.655353461488764
 31
54.66983156221343
  0
LINE
  5
1F0
330
F0
100
AcDbEntity
  8
LEVEL0
  6
SOLID
 62
     7
370
    18
100
AcDbLine
 10
19.09238625206478
 20
21.59692977918061
 30
-17.03173595179315
 11
19.0923862520649
 21
21.1152132508114
 31
-17.16571052511182
  0
ENDBLK
  5
1F1
330
F0
100
AcDbEntity
  8
0
100
AcDbBlockEnd
  0
ENDSEC
  0
SECTION
  2
ENTITIES
  0
MTEXT
  5
1F3
330
A
100
AcDbEntity
  8
LEVEL0
  6
SOLID
 62
     7
370
     9
100
AcDbMText
 10
-23.64406585693359
 20
-101.6266784667969
 30
0.0
 40
5.0
 41
0.0
 71
     4
 72
     5
  1
\f-3UR|b0|i0|c177|p0;\W0.9;View1
  7
-3UR
 73
     2
 44
1.0
  0
MTEXT
  5
1F4
330
A
100
AcDbEntity
  8
LEVEL0
  6
SOLID
 62
     7
370
     9
100
AcDbMText
 10
-24.15718650817871
 20
-236.3610992431641
 30
0.0
 40
5.0
 41
0.0
 71
     4
 72
     5
  1
\f-3UR|b0|i0|c177|p0;\W0.9;View2
  7
-3UR
 73
     2
 44
1.0
  0
MTEXT
  5
1F5
330
A
100
AcDbEntity
  8
LEVEL0
  6
SOLID
 62
     7
370
     9
100
AcDbMText
 10
246.8265991210938
 20
-101.6266784667969
 30
0.0
 40
5.0
 41
0.0
 71
     4
 72
     5
  1
\f-3UR|b0|i0|c177|p0;\W0.9;View3
  7
-3UR
 73
     2
 44
1.0
  0
MTEXT
  5
1F6
330
A
100
AcDbEntity
  8
LEVEL0
  6
SOLID
 62
     7
370
     9
100
AcDbMText
 10
-256.5693283081055
 20
-101.6266784667969
 30
0.0
 40
5.0
 41
0.0
 71
     4
 72
     5
  1
\f-3UR|b0|i0|c177|p0;\W0.9;View4
  7
-3UR
 73
     2
 44
1.0
  0
MTEXT
  5
1F7
330
A
100
AcDbEntity
  8
LEVEL0
  6
SOLID
 62
     7
370
     9
100
AcDbMText
 10
-24.11066436767578
 20
179.2227630615234
 30
0.0
 40
5.0
 41
0.0
 71
     4
 72
     5
  1
\f-3UR|b0|i0|c177|p0;\W0.9;View5
  7
-3UR
 73
     2
 44
1.0
  0
MTEXT
  5
1F8
330
A
100
AcDbEntity
  8
LEVEL0
  6
SOLID
 62
     7
370
     9
100
AcDbMText
 10
552.3175048828125
 20
-51.29990386962891
 30
0.0
 40
5.0
 41
0.0
 71
     4
 72
     5
  1
\f-3UR|b0|i0|c177|p0;\W0.9;View6
  7
-3UR
 73
     2
 44
1.0
  0
INSERT
  5
1F9
330
A
100
AcDbEntity
  8
0
100
AcDbBlockReference
  2
*G0
 10
-16.84760475158691
 20
28.89832305908203
 30
0.0
  0
INSERT
  5
1FA
330
A
100
AcDbEntity
  8
0
100
AcDbBlockReference
  2
*G1
 10
-74.54721069335938
 20
-181.1860961914062
 30
0.0
  0
INSERT
  5
1FB
330
A
100
AcDbEntity
  8
0
100
AcDbBlockReference
  2
*G2
 10
236.5923919677734
 20
-8.087296485900879
 30
0.0
  0
INSERT
  5
1FC
330
A
100
AcDbEntity
  8
0
100
AcDbBlockReference
  2
*G3
 10
-231.5777587890625
 20
18.93656921386719
 30
0.0
  0
INSERT
  5
1FD
330
A
100
AcDbEntity
  8
0
100
AcDbBlockReference
  2
*G4
 10
-139.4411468505859
 20
199.3977661132812
 30
0.0
  0
INSERT
  5
1FE
330
A
100
AcDbEntity
  8
0
100
AcDbBlockReference
  2
*G5
 10
559.58056640625
 20
31.90055274963379
 30
0.0
  0
TEXT
  5
27D
330
A
100
AcDbEntity
  8
説明文
  6
Continuous
 62
   255
390
1D
100
AcDbText
 10
411.8576410078801
 20
-195.5281880505609
 30
0.0
 40
8.00000011920929
  1
LEDソーラー壁付灯「サイネージ」
  7
MX_NOTE_STANDARD
100
AcDbText
  0
TEXT
  5
27E
330
A
100
AcDbEntity
  8
説明文
  6
Continuous
 62
   255
390
1D
100
AcDbText
 10
401.7518340404781
 20
-209.2488873188325
 30
0.0
 40
8.00000011920929
  1
・型番：STＢ5014R38
  7
MX_NOTE_STANDARD
100
AcDbText
  0
TEXT
  5
27F
330
A
100
AcDbEntity
  8
説明文
  6
Continuous
 62
   255
390
1D
100
AcDbText
 10
401.7518340404781
 20
-221.7488873188325
 30
0.0
 40
8.00000011920929
  1
・ソーラー：単結晶シリコン5W
  7
MX_NOTE_STANDARD
100
AcDbText
  0
TEXT
  5
280
330
A
100
AcDbEntity
  8
説明文
  6
Continuous
 62
   255
390
1D
100
AcDbText
 10
401.7518340404781
 20
-234.2488873188325
 30
0.0
 40
8.00000011920929
  1
・灯具寸法：220×270×35mm
  7
MX_NOTE_STANDARD
100
AcDbText
  0
TEXT
  5
282
330
A
100
AcDbEntity
  8
説明文
  6
Continuous
 62
   255
390
1D
100
AcDbText
 10
401.7518340404781
 20
-247.2862137230046
 30
0.0
 40
8.00000011920929
  1
・本体：アルミキャスト製シルバー塗装
  7
MX_NOTE_STANDARD
100
AcDbText
  0
TEXT
  5
283
330
A
100
AcDbEntity
  8
説明文
  6
Continuous
 62
   255
390
1D
100
AcDbText
 10
401.7518340404781
 20
-259.7862137230046
 30
0.0
 40
8.00000011920929
  1
・電池：リン酸鉄リチウム電池3.8Ahx1
  7
MX_NOTE_STANDARD
100
AcDbText
  0
TEXT
  5
284
330
A
100
AcDbEntity
  8
説明文
  6
Continuous
 62
   255
390
1D
100
AcDbText
 10
401.7518340404781
 20
-272.2862137230046
 30
0.0
 40
8.00000011920929
  1
・LED待機寿命：60,000時間(光束維持率80％)
  7
MX_NOTE_STANDARD
100
AcDbText
  0
TEXT
  5
285
330
A
100
AcDbEntity
  8
説明文
  6
Continuous
 62
   255
390
1D
100
AcDbText
 10
401.7518340404781
 20
-284.7862137230046
 30
0.0
 40
8.00000011920929
  1
・LED色温度：(5000K)
  7
MX_NOTE_STANDARD
100
AcDbText
  0
TEXT
  5
286
330
A
100
AcDbEntity
  8
説明文
  6
Continuous
 62
   255
390
1D
100
AcDbText
 10
401.1210747084676
 20
-298.8721095299228
 30
0.0
 40
8.00000011920929
  1
・器具光束：65Ｌｍ
  7
MX_NOTE_STANDARD
100
AcDbText
  0
ENDSEC
  0
SECTION
  2
OBJECTS
  0
DICTIONARY
  5
19
330
0
100
AcDbDictionary
281
     1
  3
ACAD_COLOR
350
226
  3
ACAD_DGNDEFINITIONS
350
24D
  3
ACAD_DWFDEFINITIONS
350
24C
  3
ACAD_GROUP
350
1A
  3
ACAD_LAYOUT
350
1E
  3
ACAD_MATERIAL
350
222
  3
ACAD_MLEADERSTYLE
350
229
  3
ACAD_MLINESTYLE
350
1B
  3
ACAD_PDFDEFINITIONS
350
24B
  3
ACAD_PLOTSETTINGS
350
22
  3
ACAD_PLOTSTYLENAME
350
1F
  3
ACAD_SCALELIST
350
200
  3
ACAD_TABLESTYLE
350
227
  3
ACAD_VISUALSTYLE
350
231
  3
ACDBHEADERROUNDTRIPXREC
350
28C
  3
AcDbVariableDictionary
350
22D
  3
DWGPROPS
350
28F
  0
DICTIONARY
  5
290
330
7
100
AcDbDictionary
280
     1
281
     1
  3
ACAD_XREC_ROUNDTRIP
360
291
  0
DICTIONARY
  5
226
102
{ACAD_REACTORS
330
19
102
}
330
19
100
AcDbDictionary
281
     1
  0
DICTIONARY
  5
24D
102
{ACAD_REACTORS
330
19
102
}
330
19
100
AcDbDictionary
281
     1
  0
DICTIONARY
  5
24C
102
{ACAD_REACTORS
330
19
102
}
330
19
100
AcDbDictionary
281
     1
  0
DICTIONARY
  5
1A
102
{ACAD_REACTORS
330
19
102
}
330
19
100
AcDbDictionary
281
     1
  0
DICTIONARY
  5
1E
102
{ACAD_REACTORS
330
19
102
}
330
19
100
AcDbDictionary
281
     1
  3
Layout1
350
21
  3
Model
350
20
  0
DICTIONARY
  5
222
102
{ACAD_REACTORS
330
19
102
}
330
19
100
AcDbDictionary
281
     1
  3
ByBlock
350
224
  3
ByLayer
350
223
  3
Global
350
225
  0
DICTIONARY
  5
229
102
{ACAD_REACTORS
330
19
102
}
330
19
100
AcDbDictionary
281
     1
  3
Standard
350
22A
  0
DICTIONARY
  5
1B
102
{ACAD_REACTORS
330
19
102
}
330
19
100
AcDbDictionary
281
     1
  3
Standard
350
1C
  0
DICTIONARY
  5
24B
102
{ACAD_REACTORS
330
19
102
}
330
19
100
AcDbDictionary
281
     1
  0
DICTIONARY
  5
22
102
{ACAD_REACTORS
330
19
102
}
330
19
100
AcDbDictionary
281
     1
  0
ACDBDICTIONARYWDFLT
  5
1F
102
{ACAD_REACTORS
330
19
102
}
330
19
100
AcDbDictionary
281
     1
  3
Normal
350
1D
100
AcDbDictionaryWithDefault
340
1D
  0
DICTIONARY
  5
200
102
{ACAD_REACTORS
330
19
102
}
330
19
100
AcDbDictionary
281
     1
  3
A0
350
201
  3
A1
350
202
  3
A2
350
203
  3
A3
350
204
  3
A4
350
205
  3
A5
350
206
  3
A6
350
207
  3
A7
350
208
  3
A8
350
209
  3
A9
350
20A
  3
B0
350
20B
  3
B1
350
20C
  3
B2
350
20D
  3
B3
350
20E
  3
B4
350
20F
  3
B5
350
210
  3
B6
350
211
  3
B7
350
212
  3
B8
350
213
  3
B9
350
214
  3
C0
350
215
  3
C1
350
216
  3
C2
350
217
  3
C3
350
218
  3
C4
350
219
  3
C5
350
21A
  3
C6
350
21B
  3
C7
350
21C
  3
C8
350
21D
  3
C9
350
21E
  3
D0
350
21F
  3
D1
350
220
  3
D2
350
221
  0
DICTIONARY
  5
227
102
{ACAD_REACTORS
330
19
102
}
330
19
100
AcDbDictionary
281
     1
  3
Standard
350
228
  0
DICTIONARY
  5
231
102
{ACAD_REACTORS
330
19
102
}
330
19
100
AcDbDictionary
281
     1
  3
2dWireframe
350
236
  3
Basic
350
239
  3
Brighten
350
23D
  3
ColorChange
350
241
  3
Conceptual
350
23B
  3
Dim
350
23C
  3
EdgeColorOff
350
244
  3
Facepattern
350
240
  3
Flat
350
232
  3
FlatWithEdges
350
233
  3
Gouraud
350
234
  3
GouraudWithEdges
350
235
  3
Hidden
350
238
  3
JitterOff
350
242
  3
Linepattern
350
23F
  3
OverhangOff
350
243
  3
Realistic
350
23A
  3
Shaded
350
249
  3
Shaded with edges
350
248
  3
Shades of Gray
350
245
  3
Sketchy
350
246
  3
Thicken
350
23E
  3
Wireframe
350
237
  3
X-Ray
350
247
  0
DICTIONARY
  5
28C
102
{ACAD_REACTORS
330
19
102
}
330
19
100
AcDbDictionary
281
     1
  3
COLORDICT
350
28D
  3
MATERIALDICT
350
28E
  0
DICTIONARY
  5
22D
102
{ACAD_REACTORS
330
19
102
}
330
19
100
AcDbDictionary
281
     1
  3
CANNOSCALE
350
292
  3
CMLEADERSTYLE
350
22F
  3
CTABLESTYLE
350
22E
  3
DIMASSOC
350
287
  3
HIDETEXT
350
288
  3
MSLTSCALE
350
293
  3
XCLIPFRAME
350
289
  0
XRECORD
  5
28F
102
{ACAD_REACTORS
330
19
102
}
330
19
100
AcDbXrecord
280
     1
  1
DWGPROPS COOKIE
  2

  3

  4

  6

  7

  8
segawa
  9

300
=
301
=
302
=
303
=
304
=
305
=
306
=
307
=
308
=
309
=
 40
0.0
 41
2459397.718101852
 42
2459398.095585614
  1

 90
        0
  0
XRECORD
  5
291
102
{ACAD_REACTORS
330
290
102
}
330
290
100
AcDbXrecord
280
     1
102
VTR_0.000_0.000_1.000_1.000_VISUALSTYLE
340
236
102
VTR_0.000_0.000_1.000_1.000_GRIDDISPLAY
 70
     3
102
VTR_0.000_0.000_1.000_1.000_GRIDMAJOR
 70
     5
102
VTR_0.000_0.000_1.000_1.000_DEFAULTLIGHTING
280
     1
102
VTR_0.000_0.000_1.000_1.000_DEFAULTLIGHTINGTYPE
 70
     0
102
VTR_0.000_0.000_1.000_1.000_BRIGHTNESS
141
0.0
102
VTR_0.000_0.000_1.000_1.000_CONTRAST
142
0.0
  0
LAYOUT
  5
21
102
{ACAD_REACTORS
330
1E
102
}
330
1E
100
AcDbPlotSettings
  1

  2

  4

  6

 40
0.0
 41
0.0
 42
0.0
 43
0.0
 44
0.0
 45
0.0
 46
0.0
 47
0.0
 48
0.0
 49
0.0
140
0.0
141
0.0
142
1.0
143
1.0
 70
     0
 72
     0
 73
     0
 74
     0
  7

 75
     0
147
1.0
148
0.0
149
0.0
100
AcDbLayout
  1
Layout1
 70
     0
 71
     1
 10
0.0
 20
0.0
 11
12.0
 21
9.0
 12
0.0
 22
0.0
 32
0.0
 14
1.000000000000000E+20
 24
1.000000000000000E+20
 34
1.000000000000000E+20
 15
-1.000000000000000E+20
 25
-1.000000000000000E+20
 35
-1.000000000000000E+20
146
0.0
 13
0.0
 23
0.0
 33
0.0
 16
1.0
 26
0.0
 36
0.0
 17
0.0
 27
1.0
 37
0.0
 76
     0
330
B
  0
LAYOUT
  5
20
102
{ACAD_REACTORS
330
1E
102
}
330
1E
100
AcDbPlotSettings
  1

  2

  4

  6

 40
0.0
 41
0.0
 42
0.0
 43
0.0
 44
0.0
 45
0.0
 46
0.0
 47
0.0
 48
0.0
 49
0.0
140
0.0
141
0.0
142
1.0
143
1.0
 70
  1024
 72
     0
 73
     0
 74
     0
  7

 75
     0
147
1.0
148
0.0
149
0.0
100
AcDbLayout
  1
Model
 70
     0
 71
     0
 10
0.0
 20
0.0
 11
0.0
 21
0.0
 12
0.0
 22
0.0
 32
0.0
 14
-266.5777587890625
 24
-298.8721095299228
 34
-165.8848713609188
 15
731.7615707852024
 25
234.3977661132812
 35
166.6135668371413
146
0.0
 13
0.0
 23
0.0
 33
0.0
 16
0.0
 26
0.0
 36
0.0
 17
0.0
 27
0.0
 37
0.0
 76
     0
330
A
331
15
  0
MATERIAL
  5
224
102
{ACAD_REACTORS
330
222
102
}
102
{ACAD_XDICTIONARY
360
294
102
}
330
222
100
AcDbMaterial
  1
ByBlock
  0
MATERIAL
  5
223
102
{ACAD_REACTORS
330
222
102
}
102
{ACAD_XDICTIONARY
360
296
102
}
330
222
100
AcDbMaterial
  1
ByLayer
  0
MATERIAL
  5
225
102
{ACAD_REACTORS
330
222
102
}
102
{ACAD_XDICTIONARY
360
298
102
}
330
222
100
AcDbMaterial
  1
Global
  0
MLEADERSTYLE
  5
22A
102
{ACAD_REACTORS
330
229
102
}
102
{ACAD_XDICTIONARY
360
29A
102
}
330
229
100
AcDbMLeaderStyle
170
     2
171
     1
172
     0
 90
        2
 40
0.0
 41
0.0
173
     1
 91
-1056964608
340
11
 92
       -2
290
     1
 42
0.09
291
     1
 43
0.36
  3
Standard
341
0
 44
0.18
300

342
17
174
     1
178
     1
175
     1
176
     0
 93
-1056964608
 45
0.18
292
     0
297
     0
 46
0.18
343
0
 94
-1056964608
 47
1.0
 49
1.0
140
1.0
293
     1
141
0.0
294
     1
177
     0
142
1.0
295
     0
296
     0
143
0.125
1001
ACAD_MLEADERVER
1070
     2
  0
MLINESTYLE
  5
1C
102
{ACAD_REACTORS
330
1B
102
}
330
1B
100
AcDbMlineStyle
  2
STANDARD
 70
     0
  3

 62
     0
 51
90.0
 52
90.0
 71
     2
 49
0.5
 62
   256
  6
BYLAYER
 49
-0.5
 62
   256
  6
BYLAYER
  0
ACDBPLACEHOLDER
  5
1D
102
{ACAD_REACTORS
330
1F
102
}
330
1F
  0
SCALE
  5
201
102
{ACAD_REACTORS
330
200
102
}
330
200
100
AcDbScale
 70
     0
300
1:1
140
1.0
141
1.0
290
     1
  0
SCALE
  5
202
102
{ACAD_REACTORS
330
200
102
}
330
200
100
AcDbScale
 70
     0
300
1:2
140
1.0
141
2.0
290
     0
  0
SCALE
  5
203
102
{ACAD_REACTORS
330
200
102
}
330
200
100
AcDbScale
 70
     0
300
1:4
140
1.0
141
4.0
290
     0
  0
SCALE
  5
204
102
{ACAD_REACTORS
330
200
102
}
330
200
100
AcDbScale
 70
     0
300
1:5
140
1.0
141
5.0
290
     0
  0
SCALE
  5
205
102
{ACAD_REACTORS
330
200
102
}
330
200
100
AcDbScale
 70
     0
300
1:8
140
1.0
141
8.0
290
     0
  0
SCALE
  5
206
102
{ACAD_REACTORS
330
200
102
}
330
200
100
AcDbScale
 70
     0
300
1:10
140
1.0
141
10.0
290
     0
  0
SCALE
  5
207
102
{ACAD_REACTORS
330
200
102
}
330
200
100
AcDbScale
 70
     0
300
1:16
140
1.0
141
16.0
290
     0
  0
SCALE
  5
208
102
{ACAD_REACTORS
330
200
102
}
330
200
100
AcDbScale
 70
     0
300
1:20
140
1.0
141
20.0
290
     0
  0
SCALE
  5
209
102
{ACAD_REACTORS
330
200
102
}
330
200
100
AcDbScale
 70
     0
300
1:30
140
1.0
141
30.0
290
     0
  0
SCALE
  5
20A
102
{ACAD_REACTORS
330
200
102
}
330
200
100
AcDbScale
 70
     0
300
1:40
140
1.0
141
40.0
290
     0
  0
SCALE
  5
20B
102
{ACAD_REACTORS
330
200
102
}
330
200
100
AcDbScale
 70
     0
300
1:50
140
1.0
141
50.0
290
     0
  0
SCALE
  5
20C
102
{ACAD_REACTORS
330
200
102
}
330
200
100
AcDbScale
 70
     0
300
1:100
140
1.0
141
100.0
290
     0
  0
SCALE
  5
20D
102
{ACAD_REACTORS
330
200
102
}
330
200
100
AcDbScale
 70
     0
300
2:1
140
2.0
141
1.0
290
     0
  0
SCALE
  5
20E
102
{ACAD_REACTORS
330
200
102
}
330
200
100
AcDbScale
 70
     0
300
4:1
140
4.0
141
1.0
290
     0
  0
SCALE
  5
20F
102
{ACAD_REACTORS
330
200
102
}
330
200
100
AcDbScale
 70
     0
300
8:1
140
8.0
141
1.0
290
     0
  0
SCALE
  5
210
102
{ACAD_REACTORS
330
200
102
}
330
200
100
AcDbScale
 70
     0
300
10:1
140
10.0
141
1.0
290
     0
  0
SCALE
  5
211
102
{ACAD_REACTORS
330
200
102
}
330
200
100
AcDbScale
 70
     0
300
100:1
140
100.0
141
1.0
290
     0
  0
SCALE
  5
212
102
{ACAD_REACTORS
330
200
102
}
330
200
100
AcDbScale
 70
     0
300
1/128" = 1'-0"
140
0.0078125
141
12.0
290
     0
  0
SCALE
  5
213
102
{ACAD_REACTORS
330
200
102
}
330
200
100
AcDbScale
 70
     0
300
1/64" = 1'-0"
140
0.015625
141
12.0
290
     0
  0
SCALE
  5
214
102
{ACAD_REACTORS
330
200
102
}
330
200
100
AcDbScale
 70
     0
300
1/32" = 1'-0"
140
0.03125
141
12.0
290
     0
  0
SCALE
  5
215
102
{ACAD_REACTORS
330
200
102
}
330
200
100
AcDbScale
 70
     0
300
1/16" = 1'-0"
140
0.0625
141
12.0
290
     0
  0
SCALE
  5
216
102
{ACAD_REACTORS
330
200
102
}
330
200
100
AcDbScale
 70
     0
300
3/32" = 1'-0"
140
0.09375
141
12.0
290
     0
  0
SCALE
  5
217
102
{ACAD_REACTORS
330
200
102
}
330
200
100
AcDbScale
 70
     0
300
1/8" = 1'-0"
140
0.125
141
12.0
290
     0
  0
SCALE
  5
218
102
{ACAD_REACTORS
330
200
102
}
330
200
100
AcDbScale
 70
     0
300
3/16" = 1'-0"
140
0.1875
141
12.0
290
     0
  0
SCALE
  5
219
102
{ACAD_REACTORS
330
200
102
}
330
200
100
AcDbScale
 70
     0
300
1/4" = 1'-0"
140
0.25
141
12.0
290
     0
  0
SCALE
  5
21A
102
{ACAD_REACTORS
330
200
102
}
330
200
100
AcDbScale
 70
     0
300
3/8" = 1'-0"
140
0.375
141
12.0
290
     0
  0
SCALE
  5
21B
102
{ACAD_REACTORS
330
200
102
}
330
200
100
AcDbScale
 70
     0
300
1/2" = 1'-0"
140
0.5
141
12.0
290
     0
  0
SCALE
  5
21C
102
{ACAD_REACTORS
330
200
102
}
330
200
100
AcDbScale
 70
     0
300
3/4" = 1'-0"
140
0.75
141
12.0
290
     0
  0
SCALE
  5
21D
102
{ACAD_REACTORS
330
200
102
}
330
200
100
AcDbScale
 70
     0
300
1" = 1'-0"
140
1.0
141
12.0
290
     0
  0
SCALE
  5
21E
102
{ACAD_REACTORS
330
200
102
}
330
200
100
AcDbScale
 70
     0
300
1-1/2" = 1'-0"
140
1.5
141
12.0
290
     0
  0
SCALE
  5
21F
102
{ACAD_REACTORS
330
200
102
}
330
200
100
AcDbScale
 70
     0
300
3" = 1'-0"
140
3.0
141
12.0
290
     0
  0
SCALE
  5
220
102
{ACAD_REACTORS
330
200
102
}
330
200
100
AcDbScale
 70
     0
300
6" = 1'-0"
140
6.0
141
12.0
290
     0
  0
SCALE
  5
221
102
{ACAD_REACTORS
330
200
102
}
330
200
100
AcDbScale
 70
     0
300
1'-0" = 1'-0"
140
12.0
141
12.0
290
     0
  0
TABLESTYLE
  5
228
102
{ACAD_REACTORS
330
227
102
}
330
227
100
AcDbTableStyle
  3
Standard
 70
     0
 71
     0
 40
0.06
 41
0.06
280
     0
281
     0
  7
Standard
140
0.18
170
     2
 62
     0
 63
   257
283
     0
274
    -2
284
     1
 64
     0
275
    -2
285
     1
 65
     0
276
    -2
286
     1
 66
     0
277
    -2
287
     1
 67
     0
278
    -2
288
     1
 68
     0
279
    -2
289
     1
 69
     0
  7
Standard
140
0.25
170
     5
 62
     0
 63
   257
283
     0
274
    -2
284
     1
 64
     0
275
    -2
285
     1
 65
     0
276
    -2
286
     1
 66
     0
277
    -2
287
     1
 67
     0
278
    -2
288
     1
 68
     0
279
    -2
289
     1
 69
     0
  7
Standard
140
0.18
170
     5
 62
     0
 63
   257
283
     0
274
    -2
284
     1
 64
     0
275
    -2
285
     1
 65
     0
276
    -2
286
     1
 66
     0
277
    -2
287
     1
 67
     0
278
    -2
288
     1
 68
     0
279
    -2
289
     1
 69
     0
  0
VISUALSTYLE
  5
236
102
{ACAD_REACTORS
330
231
102
}
102
{ACAD_XDICTIONARY
360
2A4
102
}
330
231
100
AcDbVisualStyle
  2
2dWireframe
 70
     4
 71
     0
 72
     2
 73
     0
 90
        0
 40
0.6
 41
30.0
 62
     5
 63
     7
 74
     1
 91
        4
 64
     7
 65
   257
 75
     1
175
     1
 42
1.0
 92
        0
 66
   257
 43
1.0
 76
     1
 77
     6
 78
     2
 67
     7
 79
     5
170
     0
171
     0
290
     0
174
     0
 93
        1
 44
0.0
173
     0
291
     0
 45
0.0
1001
ACAD
1000
AcDbSavedByObjectVersion
1070
     0
  0
VISUALSTYLE
  5
239
102
{ACAD_REACTORS
330
231
102
}
102
{ACAD_XDICTIONARY
360
2AA
102
}
330
231
100
AcDbVisualStyle
  2
Basic
 70
     7
 71
     1
 72
     0
 73
     1
 90
        0
 40
0.6
 41
30.0
 62
     5
 63
     7
 74
     0
 91
        4
 64
     7
 65
   257
 75
     1
175
     1
 42
1.0
 92
        8
 66
     7
 43
1.0
 76
     1
 77
     6
 78
     2
 67
     7
 79
     5
170
     0
171
     0
290
     0
174
     0
 93
        1
 44
0.0
173
     0
291
     1
 45
0.0
1001
ACAD
1000
AcDbSavedByObjectVersion
1070
     0
  0
VISUALSTYLE
  5
23D
102
{ACAD_REACTORS
330
231
102
}
102
{ACAD_XDICTIONARY
360
2B2
102
}
330
231
100
AcDbVisualStyle
  2
Brighten
 70
    12
 71
     2
 72
     2
 73
     0
 90
        0
 40
0.6
 41
30.0
 62
     5
 63
     7
 74
     1
 91
        4
 64
     7
 65
   257
 75
     1
175
     1
 42
1.0
 92
        8
 66
     7
 43
1.0
 76
     1
 77
     6
 78
     2
 67
     7
 79
     5
170
     0
171
     0
290
     0
174
     0
 93
        1
 44
50.0
173
     0
291
     1
 45
0.0
1001
ACAD
1000
AcDbSavedByObjectVersion
1070
     0
  0
VISUALSTYLE
  5
241
102
{ACAD_REACTORS
330
231
102
}
102
{ACAD_XDICTIONARY
360
2BA
102
}
330
231
100
AcDbVisualStyle
  2
ColorChange
 70
    16
 71
     2
 72
     2
 73
     3
 90
        0
 40
0.6
 41
30.0
 62
     5
 63
     8
 74
     1
 91
        4
 64
     7
 65
   257
 75
     1
175
     1
 42
1.0
 92
        8
 66
     8
 43
1.0
 76
     1
 77
     6
 78
     2
 67
     7
 79
     5
170
     0
171
     0
290
     0
174
     0
 93
        1
 44
0.0
173
     0
291
     1
 45
0.0
1001
ACAD
1000
AcDbSavedByObjectVersion
1070
     0
  0
VISUALSTYLE
  5
23B
102
{ACAD_REACTORS
330
231
102
}
102
{ACAD_XDICTIONARY
360
2AE
102
}
330
231
100
AcDbVisualStyle
  2
Conceptual
 70
     9
 71
     3
 72
     2
 73
     0
 90
        0
 40
0.6
 41
30.0
 62
     5
 63
     7
 74
     2
 91
        2
 64
     7
 65
   257
 75
     1
175
     1
 42
40.0
 92
        8
 66
     7
 43
1.0
 76
     1
 77
     6
 78
     2
 67
     7
 79
     3
170
     0
171
     0
290
     0
174
     0
 93
        1
 44
0.0
173
     0
291
     0
 45
0.0
1001
ACAD
1000
AcDbSavedByObjectVersion
1070
     0
  0
VISUALSTYLE
  5
23C
102
{ACAD_REACTORS
330
231
102
}
102
{ACAD_XDICTIONARY
360
2B0
102
}
330
231
100
AcDbVisualStyle
  2
Dim
 70
    11
 71
     2
 72
     2
 73
     0
 90
        0
 40
0.6
 41
30.0
 62
     5
 63
     7
 74
     1
 91
        4
 64
     7
 65
   257
 75
     1
175
     1
 42
1.0
 92
        8
 66
     7
 43
1.0
 76
     1
 77
     6
 78
     2
 67
     7
 79
     5
170
     0
171
     0
290
     0
174
     0
 93
        1
 44
-50.0
173
     0
291
     1
 45
0.0
1001
ACAD
1000
AcDbSavedByObjectVersion
1070
     0
  0
VISUALSTYLE
  5
244
102
{ACAD_REACTORS
330
231
102
}
102
{ACAD_XDICTIONARY
360
2C0
102
}
330
231
100
AcDbVisualStyle
  2
EdgeColorOff
 70
    22
 71
     2
 72
     2
 73
     0
 90
        0
 40
0.6
 41
30.0
 62
     5
 63
     7
 74
     1
 91
        4
 64
     7
 65
   257
 75
     1
175
     1
 42
1.0
 92
        8
 66
     7
 43
1.0
 76
     1
 77
     6
 78
     2
 67
     7
 79
     5
170
     0
171
     0
290
     0
174
     0
 93
        1
 44
0.0
173
     0
291
     1
 45
0.0
1001
ACAD
1000
AcDbSavedByObjectVersion
1070
     0
  0
VISUALSTYLE
  5
240
102
{ACAD_REACTORS
330
231
102
}
102
{ACAD_XDICTIONARY
360
2B8
102
}
330
231
100
AcDbVisualStyle
  2
Facepattern
 70
    15
 71
     2
 72
     2
 73
     0
 90
        0
 40
0.6
 41
30.0
 62
     5
 63
     7
 74
     1
 91
        4
 64
     7
 65
   257
 75
     1
175
     1
 42
1.0
 92
        8
 66
     7
 43
1.0
 76
     1
 77
     6
 78
     2
 67
     7
 79
     5
170
     0
171
     0
290
     0
174
     0
 93
        1
 44
0.0
173
     0
291
     1
 45
0.0
1001
ACAD
1000
AcDbSavedByObjectVersion
1070
     0
  0
VISUALSTYLE
  5
232
102
{ACAD_REACTORS
330
231
102
}
102
{ACAD_XDICTIONARY
360
29C
102
}
330
231
100
AcDbVisualStyle
  2
Flat
 70
     0
 71
     2
 72
     1
 73
     1
 90
        2
 40
0.6
 41
30.0
 62
     5
 63
     7
 74
     0
 91
        4
 64
     7
 65
   257
 75
     1
175
     1
 42
1.0
 92
        8
 66
     7
 43
1.0
 76
     1
 77
     6
 78
     2
 67
     7
 79
     5
170
     0
171
     0
290
     0
174
     0
 93
       13
 44
0.0
173
     0
291
     1
 45
0.0
1001
ACAD
1000
AcDbSavedByObjectVersion
1070
     0
  0
VISUALSTYLE
  5
233
102
{ACAD_REACTORS
330
231
102
}
102
{ACAD_XDICTIONARY
360
29E
102
}
330
231
100
AcDbVisualStyle
  2
FlatWithEdges
 70
     1
 71
     2
 72
     1
 73
     1
 90
        2
 40
0.6
 41
30.0
 62
     5
 63
     7
 74
     1
 91
        4
 64
     7
 65
   257
 75
     1
175
     1
 42
1.0
 92
        0
 66
   257
 43
1.0
 76
     1
 77
     6
 78
     2
 67
     7
 79
     5
170
     0
171
     0
290
     0
174
     0
 93
       13
 44
0.0
173
     0
291
     1
 45
0.0
1001
ACAD
1000
AcDbSavedByObjectVersion
1070
     0
  0
VISUALSTYLE
  5
234
102
{ACAD_REACTORS
330
231
102
}
102
{ACAD_XDICTIONARY
360
2A0
102
}
330
231
100
AcDbVisualStyle
  2
Gouraud
 70
     2
 71
     2
 72
     2
 73
     1
 90
        2
 40
0.6
 41
30.0
 62
     5
 63
     7
 74
     0
 91
        4
 64
     7
 65
   257
 75
     1
175
     1
 42
1.0
 92
        0
 66
     7
 43
1.0
 76
     1
 77
     6
 78
     2
 67
     7
 79
     5
170
     0
171
     0
290
     0
174
     0
 93
       13
 44
0.0
173
     0
291
     1
 45
0.0
1001
ACAD
1000
AcDbSavedByObjectVersion
1070
     0
  0
VISUALSTYLE
  5
235
102
{ACAD_REACTORS
330
231
102
}
102
{ACAD_XDICTIONARY
360
2A2
102
}
330
231
100
AcDbVisualStyle
  2
GouraudWithEdges
 70
     3
 71
     2
 72
     2
 73
     1
 90
        2
 40
0.6
 41
30.0
 62
     5
 63
     7
 74
     1
 91
        4
 64
     7
 65
   257
 75
     1
175
     1
 42
1.0
 92
        0
 66
   257
 43
1.0
 76
     1
 77
     6
 78
     2
 67
     7
 79
     5
170
     0
171
     0
290
     0
174
     0
 93
       13
 44
0.0
173
     0
291
     1
 45
0.0
1001
ACAD
1000
AcDbSavedByObjectVersion
1070
     0
  0
VISUALSTYLE
  5
238
102
{ACAD_REACTORS
330
231
102
}
102
{ACAD_XDICTIONARY
360
2A8
102
}
330
231
100
AcDbVisualStyle
  2
Hidden
 70
     6
 71
     1
 72
     2
 73
     2
 90
        0
 40
0.6
 41
30.0
 62
     5
 63
     7
 74
     2
 91
        2
 64
     7
 65
   257
 75
     2
175
     1
 42
40.0
 92
        0
 66
   257
 43
1.0
 76
     1
 77
     6
 78
     2
 67
     7
 79
     3
170
     0
171
     0
290
     0
174
     0
 93
        1
 44
0.0
173
     0
291
     0
 45
0.0
1001
ACAD
1000
AcDbSavedByObjectVersion
1070
     0
  0
VISUALSTYLE
  5
242
102
{ACAD_REACTORS
330
231
102
}
102
{ACAD_XDICTIONARY
360
2BC
102
}
330
231
100
AcDbVisualStyle
  2
JitterOff
 70
    20
 71
     2
 72
     2
 73
     0
 90
        0
 40
0.6
 41
30.0
 62
     5
 63
     7
 74
     1
 91
        4
 64
     7
 65
   257
 75
     1
175
     1
 42
1.0
 92
       10
 66
     7
 43
1.0
 76
     1
 77
     6
 78
     2
 67
     7
 79
     5
170
     0
171
     0
290
     0
174
     0
 93
        1
 44
0.0
173
     0
291
     1
 45
0.0
1001
ACAD
1000
AcDbSavedByObjectVersion
1070
     0
  0
VISUALSTYLE
  5
23F
102
{ACAD_REACTORS
330
231
102
}
102
{ACAD_XDICTIONARY
360
2B6
102
}
330
231
100
AcDbVisualStyle
  2
Linepattern
 70
    14
 71
     2
 72
     2
 73
     0
 90
        0
 40
0.6
 41
30.0
 62
     5
 63
     7
 74
     1
 91
        4
 64
     7
 65
   257
 75
     7
175
     7
 42
1.0
 92
        8
 66
     7
 43
1.0
 76
     1
 77
     6
 78
     2
 67
     7
 79
     5
170
     0
171
     0
290
     0
174
     0
 93
        1
 44
0.0
173
     0
291
     1
 45
0.0
1001
ACAD
1000
AcDbSavedByObjectVersion
1070
     0
  0
VISUALSTYLE
  5
243
102
{ACAD_REACTORS
330
231
102
}
102
{ACAD_XDICTIONARY
360
2BE
102
}
330
231
100
AcDbVisualStyle
  2
OverhangOff
 70
    21
 71
     2
 72
     2
 73
     0
 90
        0
 40
0.6
 41
30.0
 62
     5
 63
     7
 74
     1
 91
        4
 64
     7
 65
   257
 75
     1
175
     1
 42
1.0
 92
        9
 66
     7
 43
1.0
 76
     1
 77
     6
 78
     2
 67
     7
 79
     5
170
     0
171
     0
290
     0
174
     0
 93
        1
 44
0.0
173
     0
291
     1
 45
0.0
1001
ACAD
1000
AcDbSavedByObjectVersion
1070
     0
  0
VISUALSTYLE
  5
23A
102
{ACAD_REACTORS
330
231
102
}
102
{ACAD_XDICTIONARY
360
2AC
102
}
330
231
100
AcDbVisualStyle
  2
Realistic
 70
     8
 71
     2
 72
     3
 73
     0
 90
        2
 40
0.6
 41
30.0
 62
     5
 63
     7
 74
     0
 91
        0
 64
     7
 65
   257
 75
     1
175
     1
 42
1.0
 92
        8
 66
   257
 43
1.0
 76
     1
 77
     6
 78
     2
 67
     7
 79
     3
170
     0
171
     0
290
     0
174
     0
 93
       13
 44
0.0
173
     0
291
     0
 45
0.0
1001
ACAD
1000
AcDbSavedByObjectVersion
1070
     0
  0
VISUALSTYLE
  5
249
102
{ACAD_REACTORS
330
231
102
}
102
{ACAD_XDICTIONARY
360
2CA
102
}
330
231
100
AcDbVisualStyle
  2
Shaded
 70
    27
 71
     2
 72
     2
 73
     1
 90
        2
 40
0.6
 41
30.0
 62
     5
 63
     7
 74
     0
 91
        4
 64
     7
 65
   257
 75
     1
175
     1
 42
1.0
 92
        8
 66
   257
 43
1.0
 76
     1
 77
     6
 78
     2
 67
   251
 79
     3
170
     0
171
     0
290
     0
174
     0
 93
        5
 44
0.0
173
     0
291
     0
 45
0.0
1001
ACAD
1000
AcDbSavedByObjectVersion
1070
     0
  0
VISUALSTYLE
  5
248
102
{ACAD_REACTORS
330
231
102
}
102
{ACAD_XDICTIONARY
360
2C8
102
}
330
231
100
AcDbVisualStyle
  2
Shaded with edges
 70
    26
 71
     2
 72
     2
 73
     1
 90
        2
 40
0.6
 41
30.0
 62
     5
 63
     7
 74
     1
 91
       10
 64
     7
 65
   257
 75
     2
175
     1
 42
1.0
 92
        8
 66
   257
 43
1.0
 76
     1
 77
     6
 78
     2
 67
     7
 79
     3
170
     0
171
     0
290
     0
174
     0
 93
        5
 44
0.0
173
     0
291
     0
 45
0.0
1001
ACAD
1000
AcDbSavedByObjectVersion
1070
     0
  0
VISUALSTYLE
  5
245
102
{ACAD_REACTORS
330
231
102
}
102
{ACAD_XDICTIONARY
360
2C2
102
}
330
231
100
AcDbVisualStyle
  2
Shades of Gray
 70
    23
 71
     2
 72
     2
 73
     3
 90
        0
 40
0.6
 41
30.0
 62
     5
 63
     7
 74
     2
 91
        2
 64
     7
 65
     7
 75
     1
175
     1
 42
40.0
 92
        8
 66
     7
 43
1.0
 76
     1
 77
     6
 78
     2
 67
     7
 79
     3
170
     0
171
     0
290
     0
174
     0
 93
        1
 44
0.0
173
     0
291
     0
 45
0.0
1001
ACAD
1000
AcDbSavedByObjectVersion
1070
     0
  0
VISUALSTYLE
  5
246
102
{ACAD_REACTORS
330
231
102
}
102
{ACAD_XDICTIONARY
360
2C4
102
}
330
231
100
AcDbVisualStyle
  2
Sketchy
 70
    24
 71
     1
 72
     2
 73
     2
 90
        0
 40
0.6
 41
30.0
 62
     5
 63
     7
 74
     2
 91
        2
 64
     7
 65
     7
 75
     1
175
     1
 42
40.0
 92
       11
 66
     7
 43
1.0
 76
     1
 77
     6
 78
     2
 67
     7
 79
     6
170
     0
171
     0
290
     0
174
     0
 93
        1
 44
0.0
173
     0
291
     0
 45
0.0
1001
ACAD
1000
AcDbSavedByObjectVersion
1070
     0
  0
VISUALSTYLE
  5
23E
102
{ACAD_REACTORS
330
231
102
}
102
{ACAD_XDICTIONARY
360
2B4
102
}
330
231
100
AcDbVisualStyle
  2
Thicken
 70
    13
 71
     2
 72
     2
 73
     0
 90
        0
 40
0.6
 41
30.0
 62
     5
 63
     7
 74
     1
 91
        4
 64
     7
 65
   257
 75
     1
175
     1
 42
1.0
 92
       12
 66
     7
 43
1.0
 76
     1
 77
     6
 78
     2
 67
     7
 79
     5
170
     0
171
     0
290
     0
174
     0
 93
        1
 44
0.0
173
     0
291
     1
 45
0.0
1001
ACAD
1000
AcDbSavedByObjectVersion
1070
     0
  0
VISUALSTYLE
  5
237
102
{ACAD_REACTORS
330
231
102
}
102
{ACAD_XDICTIONARY
360
2A6
102
}
330
231
100
AcDbVisualStyle
  2
Wireframe
 70
     5
 71
     0
 72
     2
 73
     0
 90
        0
 40
0.6
 41
30.0
 62
     5
 63
     7
 74
     1
 91
        4
 64
     7
 65
   257
 75
     1
175
     1
 42
1.0
 92
        0
 66
   257
 43
1.0
 76
     1
 77
     6
 78
     2
 67
     7
 79
     5
170
     0
171
     0
290
     0
174
     0
 93
        1
 44
0.0
173
     0
291
     0
 45
0.0
1001
ACAD
1000
AcDbSavedByObjectVersion
1070
     0
  0
VISUALSTYLE
  5
247
102
{ACAD_REACTORS
330
231
102
}
102
{ACAD_XDICTIONARY
360
2C6
102
}
330
231
100
AcDbVisualStyle
  2
X-Ray
 70
    25
 71
     2
 72
     2
 73
     1
 90
        1
 40
0.5
 41
30.0
 62
     5
 63
     7
 74
     1
 91
        0
 64
     7
 65
   257
 75
     1
175
     1
 42
1.0
 92
        8
 66
     7
 43
1.0
 76
     1
 77
     6
 78
     2
 67
     7
 79
     3
170
     0
171
     0
290
     0
174
     0
 93
       13
 44
0.0
173
     0
291
     0
 45
0.0
1001
ACAD
1000
AcDbSavedByObjectVersion
1070
     0
  0
XRECORD
  5
28D
102
{ACAD_REACTORS
330
28C
102
}
330
28C
100
AcDbXrecord
280
     1
340
226
  0
XRECORD
  5
28E
102
{ACAD_REACTORS
330
28C
102
}
330
28C
100
AcDbXrecord
280
     1
340
222
  0
DICTIONARYVAR
  5
292
102
{ACAD_REACTORS
330
22D
102
}
330
22D
100
DictionaryVariables
280
     0
  1
1:1
  0
DICTIONARYVAR
  5
22F
102
{ACAD_REACTORS
330
22D
102
}
330
22D
100
DictionaryVariables
280
     0
  1
Standard
  0
DICTIONARYVAR
  5
22E
102
{ACAD_REACTORS
330
22D
102
}
330
22D
100
DictionaryVariables
280
     0
  1
Standard
  0
DICTIONARYVAR
  5
287
102
{ACAD_REACTORS
330
22D
102
}
330
22D
100
DictionaryVariables
280
     0
  1
1
  0
DICTIONARYVAR
  5
288
102
{ACAD_REACTORS
330
22D
102
}
330
22D
100
DictionaryVariables
280
     0
  1
0
  0
DICTIONARYVAR
  5
293
102
{ACAD_REACTORS
330
22D
102
}
330
22D
100
DictionaryVariables
280
     0
  1
1
  0
DICTIONARYVAR
  5
289
102
{ACAD_REACTORS
330
22D
102
}
330
22D
100
DictionaryVariables
280
     0
  1
0
  0
DICTIONARY
  5
294
330
224
100
AcDbDictionary
280
     1
281
     1
  3
ACAD_XREC_ROUNDTRIP
360
295
  0
DICTIONARY
  5
296
330
223
100
AcDbDictionary
280
     1
281
     1
  3
ACAD_XREC_ROUNDTRIP
360
297
  0
DICTIONARY
  5
298
330
225
100
AcDbDictionary
280
     1
281
     1
  3
ACAD_XREC_ROUNDTRIP
360
299
  0
DICTIONARY
  5
29A
330
22A
100
AcDbDictionary
280
     1
281
     1
  3
ACAD_XREC_ROUNDTRIP
360
29B
  0
DICTIONARY
  5
2A4
330
236
100
AcDbDictionary
280
     1
281
     1
  3
ACAD_XREC_ROUNDTRIP
360
2A5
  0
DICTIONARY
  5
2AA
330
239
100
AcDbDictionary
280
     1
281
     1
  3
ACAD_XREC_ROUNDTRIP
360
2AB
  0
DICTIONARY
  5
2B2
330
23D
100
AcDbDictionary
280
     1
281
     1
  3
ACAD_XREC_ROUNDTRIP
360
2B3
  0
DICTIONARY
  5
2BA
330
241
100
AcDbDictionary
280
     1
281
     1
  3
ACAD_XREC_ROUNDTRIP
360
2BB
  0
DICTIONARY
  5
2AE
330
23B
100
AcDbDictionary
280
     1
281
     1
  3
ACAD_XREC_ROUNDTRIP
360
2AF
  0
DICTIONARY
  5
2B0
330
23C
100
AcDbDictionary
280
     1
281
     1
  3
ACAD_XREC_ROUNDTRIP
360
2B1
  0
DICTIONARY
  5
2C0
330
244
100
AcDbDictionary
280
     1
281
     1
  3
ACAD_XREC_ROUNDTRIP
360
2C1
  0
DICTIONARY
  5
2B8
330
240
100
AcDbDictionary
280
     1
281
     1
  3
ACAD_XREC_ROUNDTRIP
360
2B9
  0
DICTIONARY
  5
29C
330
232
100
AcDbDictionary
280
     1
281
     1
  3
ACAD_XREC_ROUNDTRIP
360
29D
  0
DICTIONARY
  5
29E
330
233
100
AcDbDictionary
280
     1
281
     1
  3
ACAD_XREC_ROUNDTRIP
360
29F
  0
DICTIONARY
  5
2A0
330
234
100
AcDbDictionary
280
     1
281
     1
  3
ACAD_XREC_ROUNDTRIP
360
2A1
  0
DICTIONARY
  5
2A2
330
235
100
AcDbDictionary
280
     1
281
     1
  3
ACAD_XREC_ROUNDTRIP
360
2A3
  0
DICTIONARY
  5
2A8
330
238
100
AcDbDictionary
280
     1
281
     1
  3
ACAD_XREC_ROUNDTRIP
360
2A9
  0
DICTIONARY
  5
2BC
330
242
100
AcDbDictionary
280
     1
281
     1
  3
ACAD_XREC_ROUNDTRIP
360
2BD
  0
DICTIONARY
  5
2B6
330
23F
100
AcDbDictionary
280
     1
281
     1
  3
ACAD_XREC_ROUNDTRIP
360
2B7
  0
DICTIONARY
  5
2BE
330
243
100
AcDbDictionary
280
     1
281
     1
  3
ACAD_XREC_ROUNDTRIP
360
2BF
  0
DICTIONARY
  5
2AC
330
23A
100
AcDbDictionary
280
     1
281
     1
  3
ACAD_XREC_ROUNDTRIP
360
2AD
  0
DICTIONARY
  5
2CA
330
249
100
AcDbDictionary
280
     1
281
     1
  3
ACAD_XREC_ROUNDTRIP
360
2CB
  0
DICTIONARY
  5
2C8
330
248
100
AcDbDictionary
280
     1
281
     1
  3
ACAD_XREC_ROUNDTRIP
360
2C9
  0
DICTIONARY
  5
2C2
330
245
100
AcDbDictionary
280
     1
281
     1
  3
ACAD_XREC_ROUNDTRIP
360
2C3
  0
DICTIONARY
  5
2C4
330
246
100
AcDbDictionary
280
     1
281
     1
  3
ACAD_XREC_ROUNDTRIP
360
2C5
  0
DICTIONARY
  5
2B4
330
23E
100
AcDbDictionary
280
     1
281
     1
  3
ACAD_XREC_ROUNDTRIP
360
2B5
  0
DICTIONARY
  5
2A6
330
237
100
AcDbDictionary
280
     1
281
     1
  3
ACAD_XREC_ROUNDTRIP
360
2A7
  0
DICTIONARY
  5
2C6
330
247
100
AcDbDictionary
280
     1
281
     1
  3
ACAD_XREC_ROUNDTRIP
360
2C7
  0
XRECORD
  5
295
102
{ACAD_REACTORS
330
294
102
}
330
294
100
AcDbXrecord
280
     1
102
MATERIAL
148
0.0
149
0.0
149
0.0
 93
        0
 94
        0
282
     0
 72
     1
 77
     1
171
     1
175
     1
179
     1
273
     0
  0
XRECORD
  5
297
102
{ACAD_REACTORS
330
296
102
}
330
296
100
AcDbXrecord
280
     1
102
MATERIAL
148
0.0
149
0.0
149
0.0
 93
        0
 94
        0
282
     0
 72
     1
 77
     1
171
     1
175
     1
179
     1
273
     0
  0
XRECORD
  5
299
102
{ACAD_REACTORS
330
298
102
}
330
298
100
AcDbXrecord
280
     1
102
MATERIAL
148
0.0
149
0.0
149
0.0
 93
        0
 94
        0
282
     0
 72
     1
 77
     1
171
     1
175
     1
179
     1
273
     0
  0
XRECORD
  5
29B
102
{ACAD_REACTORS
330
29A
102
}
330
29A
100
AcDbXrecord
280
     1
102
ACAD_ROUNDTRIP_2010_MLEADER_STYLE
  0
XRECORD
  5
2A5
102
{ACAD_REACTORS
330
2A4
102
}
330
2A4
100
AcDbXrecord
280
     1
102
RTVSPropertyOp0
 70
     1
102
RTVSPropertyOp1
 70
     1
102
RTVSPropertyOp2
 70
     1
102
RTVSPropertyOp3
 70
     1
102
RTVSPropertyOp4
 70
     1
102
RTVSPropertyOp5
 70
     1
102
RTVSPropertyOp6
 70
     1
102
RTVSPropertyOp7
 70
     1
102
RTVSPropertyOp8
 70
     1
102
RTVSPropertyOp9
 70
     1
102
RTVSPropertyOp10
 70
     1
102
RTVSPropertyOp11
 70
     1
102
RTVSPropertyOp12
 70
     1
102
RTVSPropertyOp13
 70
     1
102
RTVSPropertyOp14
 70
     1
102
RTVSPropertyOp15
 70
     1
102
RTVSPropertyOp16
 70
     1
102
RTVSPropertyOp17
 70
     1
102
RTVSPropertyOp18
 70
     1
102
RTVSPropertyOp19
 70
     1
102
RTVSPropertyOp20
 70
     1
102
RTVSPropertyOp21
 70
     1
102
RTVSPropertyOp22
 70
     1
102
RTVSPropertyOp23
 70
     1
102
RTVSPropertyOp24
 70
     1
102
RTVSPropertyOp25
 70
     1
102
RTVSPropertyOp26
 70
     1
102
RTVSPropertyOp27
 70
     1
102
RTVSPropertyOp28
 70
     1
102
RTVSPropertyOp29
 70
     1
102
RTVSPropertyOp30
 70
     1
102
RTVSPropertyOp31
 70
     1
102
RTVSPropertyOp32
 70
     1
102
RTVSPropertyOp33
 70
     1
102
RTVSPropertyOp34
 70
     1
102
RTVSPropertyOp35
 70
     1
102
RTVSPropertyOp36
 70
     1
102
RTVSPropertyOp37
 70
     1
102
RTVSPropertyOp38
 70
     1
102
RTVSPropertyOp39
 70
     1
102
RTVSPropertyOp40
 70
     1
102
RTVSPropertyOp41
 70
     1
102
RTVSPropertyOp42
 70
     1
102
RTVSPropertyOp43
 70
     1
102
RTVSPropertyOp44
 70
     1
102
RTVSPropertyOp45
 70
     1
102
RTVSPropertyOp46
 70
     1
102
RTVSPropertyOp47
 70
     1
102
RTVSPropertyOp48
 70
     1
102
RTVSPropertyOp49
 70
     1
102
RTVSPropertyOp50
 70
     1
102
RTVSPropertyOp51
 70
     0
102
RTVSPropertyOp52
 70
     0
102
RTVSPropertyOp53
 70
     1
102
RTVSPropertyOp54
 70
     1
102
RTVSPropertyOp55
 70
     1
102
RTVSPropertyOp56
 70
     1
102
RTVSPropertyOp57
 70
     1
102
RTVSPost2010Prop28
280
     1
102
RTVSPost2010PropOp28
 70
     1
102
RTVSPost2010Prop29
280
     1
102
RTVSPost2010PropOp29
 70
     1
102
RTVSPost2010Prop30
280
     0
102
RTVSPost2010PropOp30
 70
     1
102
RTVSPost2010Prop31
280
     0
102
RTVSPost2010PropOp31
 70
     1
102
RTVSPost2010Prop32
280
     0
102
RTVSPost2010PropOp32
 70
     1
102
RTVSPost2010Prop33
280
     0
102
RTVSPost2010PropOp33
 70
     1
102
RTVSPost2010Prop34
280
     0
102
RTVSPost2010PropOp34
 70
     1
102
RTVSPost2010Prop35
280
     0
102
RTVSPost2010PropOp35
 70
     1
102
RTVSPost2010Prop36
280
     0
102
RTVSPost2010PropOp36
 70
     1
102
RTVSPost2010Prop37
 90
       50
102
RTVSPost2010PropOp37
 70
     1
102
RTVSPost2010Prop38
140
0.0
102
RTVSPost2010PropOp38
 70
     1
102
RTVSPost2010Prop39
140
1.0
102
RTVSPost2010PropOp39
 70
     1
102
RTVSPost2010Prop40
 90
        0
102
RTVSPost2010PropOp40
 70
     1
102
RTVSPost2010Prop41ColorIndex
 90
       18
102
RTVSPost2010Prop41ColorRGB
 90
        0
102
RTVSPost2010PropOp41
 70
     1
102
RTVSPost2010Prop42
 90
       50
102
RTVSPost2010PropOp42
 70
     1
102
RTVSPost2010Prop43
 90
        3
102
RTVSPost2010PropOp43
 70
     1
102
RTVSPost2010Prop44ColorIndex
 90
        5
102
RTVSPost2010Prop44ColorRGB
 90
      255
102
RTVSPost2010PropOp44
 70
     1
102
RTVSPost2010Prop45
280
     0
102
RTVSPost2010PropOp45
 70
     1
102
RTVSPost2010Prop46
 90
       50
102
RTVSPost2010PropOp46
 70
     1
102
RTVSPost2010Prop47
 90
       50
102
RTVSPost2010PropOp47
 70
     1
102
RTVSPost2010Prop48
 90
       50
102
RTVSPost2010PropOp48
 70
     1
102
RTVSPost2010Prop49
280
     0
102
RTVSPost2010PropOp49
 70
     1
102
RTVSPost2010Prop50
 90
       50
102
RTVSPost2010PropOp50
 70
     1
102
RTVSPost2010Prop51ColorIndex
 90
      256
102
RTVSPost2010Prop51ColorRGB
 90
-16777216
102
RTVSPost2010PropOp51
 70
     0
102
RTVSPost2010Prop52
140
1.0
102
RTVSPost2010PropOp52
 70
     0
102
RTVSPost2010Prop53
 90
        2
102
RTVSPost2010PropOp53
 70
     1
102
RTVSPost2010Prop54
  1
strokes_ogs.tif
102
RTVSPost2010PropOp54
 70
     1
102
RTVSPost2010Prop55
280
     0
102
RTVSPost2010PropOp55
 70
     1
102
RTVSPost2010Prop56
140
1.0
102
RTVSPost2010PropOp56
 70
     1
102
RTVSPost2010Prop57
140
1.0
102
RTVSPost2010PropOp57
 70
     1
  0
XRECORD
  5
2AB
102
{ACAD_REACTORS
330
2AA
102
}
330
2AA
100
AcDbXrecord
280
     1
102
RTVSPropertyOp0
 70
     1
102
RTVSPropertyOp1
 70
     1
102
RTVSPropertyOp2
 70
     1
102
RTVSPropertyOp3
 70
     1
102
RTVSPropertyOp4
 70
     1
102
RTVSPropertyOp5
 70
     1
102
RTVSPropertyOp6
 70
     1
102
RTVSPropertyOp7
 70
     1
102
RTVSPropertyOp8
 70
     1
102
RTVSPropertyOp9
 70
     1
102
RTVSPropertyOp10
 70
     1
102
RTVSPropertyOp11
 70
     1
102
RTVSPropertyOp12
 70
     1
102
RTVSPropertyOp13
 70
     1
102
RTVSPropertyOp14
 70
     1
102
RTVSPropertyOp15
 70
     1
102
RTVSPropertyOp16
 70
     1
102
RTVSPropertyOp17
 70
     1
102
RTVSPropertyOp18
 70
     1
102
RTVSPropertyOp19
 70
     1
102
RTVSPropertyOp20
 70
     1
102
RTVSPropertyOp21
 70
     1
102
RTVSPropertyOp22
 70
     1
102
RTVSPropertyOp23
 70
     1
102
RTVSPropertyOp24
 70
     1
102
RTVSPropertyOp25
 70
     1
102
RTVSPropertyOp26
 70
     1
102
RTVSPropertyOp27
 70
     1
102
RTVSPropertyOp28
 70
     1
102
RTVSPropertyOp29
 70
     1
102
RTVSPropertyOp30
 70
     1
102
RTVSPropertyOp31
 70
     1
102
RTVSPropertyOp32
 70
     1
102
RTVSPropertyOp33
 70
     1
102
RTVSPropertyOp34
 70
     1
102
RTVSPropertyOp35
 70
     1
102
RTVSPropertyOp36
 70
     1
102
RTVSPropertyOp37
 70
     1
102
RTVSPropertyOp38
 70
     1
102
RTVSPropertyOp39
 70
     1
102
RTVSPropertyOp40
 70
     1
102
RTVSPropertyOp41
 70
     1
102
RTVSPropertyOp42
 70
     1
102
RTVSPropertyOp43
 70
     1
102
RTVSPropertyOp44
 70
     1
102
RTVSPropertyOp45
 70
     1
102
RTVSPropertyOp46
 70
     1
102
RTVSPropertyOp47
 70
     1
102
RTVSPropertyOp48
 70
     1
102
RTVSPropertyOp49
 70
     1
102
RTVSPropertyOp50
 70
     1
102
RTVSPropertyOp51
 70
     0
102
RTVSPropertyOp52
 70
     0
102
RTVSPropertyOp53
 70
     1
102
RTVSPropertyOp54
 70
     1
102
RTVSPropertyOp55
 70
     1
102
RTVSPropertyOp56
 70
     1
102
RTVSPropertyOp57
 70
     1
102
RTVSPost2010Prop28
280
     0
102
RTVSPost2010PropOp28
 70
     1
102
RTVSPost2010Prop29
280
     1
102
RTVSPost2010PropOp29
 70
     1
102
RTVSPost2010Prop30
280
     1
102
RTVSPost2010PropOp30
 70
     1
102
RTVSPost2010Prop31
280
     0
102
RTVSPost2010PropOp31
 70
     1
102
RTVSPost2010Prop32
280
     0
102
RTVSPost2010PropOp32
 70
     1
102
RTVSPost2010Prop33
280
     0
102
RTVSPost2010PropOp33
 70
     1
102
RTVSPost2010Prop34
280
     0
102
RTVSPost2010PropOp34
 70
     1
102
RTVSPost2010Prop35
280
     0
102
RTVSPost2010PropOp35
 70
     1
102
RTVSPost2010Prop36
280
     0
102
RTVSPost2010PropOp36
 70
     1
102
RTVSPost2010Prop37
 90
       50
102
RTVSPost2010PropOp37
 70
     1
102
RTVSPost2010Prop38
140
0.0
102
RTVSPost2010PropOp38
 70
     1
102
RTVSPost2010Prop39
140
1.0
102
RTVSPost2010PropOp39
 70
     1
102
RTVSPost2010Prop40
 90
        0
102
RTVSPost2010PropOp40
 70
     1
102
RTVSPost2010Prop41ColorIndex
 90
       18
102
RTVSPost2010Prop41ColorRGB
 90
        0
102
RTVSPost2010PropOp41
 70
     1
102
RTVSPost2010Prop42
 90
       50
102
RTVSPost2010PropOp42
 70
     1
102
RTVSPost2010Prop43
 90
        3
102
RTVSPost2010PropOp43
 70
     1
102
RTVSPost2010Prop44ColorIndex
 90
        5
102
RTVSPost2010Prop44ColorRGB
 90
      255
102
RTVSPost2010PropOp44
 70
     1
102
RTVSPost2010Prop45
280
     0
102
RTVSPost2010PropOp45
 70
     1
102
RTVSPost2010Prop46
 90
       50
102
RTVSPost2010PropOp46
 70
     1
102
RTVSPost2010Prop47
 90
       50
102
RTVSPost2010PropOp47
 70
     1
102
RTVSPost2010Prop48
 90
       50
102
RTVSPost2010PropOp48
 70
     1
102
RTVSPost2010Prop49
280
     0
102
RTVSPost2010PropOp49
 70
     1
102
RTVSPost2010Prop50
 90
       50
102
RTVSPost2010PropOp50
 70
     1
102
RTVSPost2010Prop51ColorIndex
 90
      256
102
RTVSPost2010Prop51ColorRGB
 90
-16777216
102
RTVSPost2010PropOp51
 70
     0
102
RTVSPost2010Prop52
140
1.0
102
RTVSPost2010PropOp52
 70
     0
102
RTVSPost2010Prop53
 90
        2
102
RTVSPost2010PropOp53
 70
     1
102
RTVSPost2010Prop54
  1
strokes_ogs.tif
102
RTVSPost2010PropOp54
 70
     1
102
RTVSPost2010Prop55
280
     0
102
RTVSPost2010PropOp55
 70
     1
102
RTVSPost2010Prop56
140
1.0
102
RTVSPost2010PropOp56
 70
     1
102
RTVSPost2010Prop57
140
1.0
102
RTVSPost2010PropOp57
 70
     1
  0
XRECORD
  5
2B3
102
{ACAD_REACTORS
330
2B2
102
}
330
2B2
100
AcDbXrecord
280
     1
102
RTVSPropertyOp0
 70
     1
102
RTVSPropertyOp1
 70
     1
102
RTVSPropertyOp2
 70
     1
102
RTVSPropertyOp3
 70
     1
102
RTVSPropertyOp4
 70
     1
102
RTVSPropertyOp5
 70
     1
102
RTVSPropertyOp6
 70
     1
102
RTVSPropertyOp7
 70
     1
102
RTVSPropertyOp8
 70
     1
102
RTVSPropertyOp9
 70
     1
102
RTVSPropertyOp10
 70
     1
102
RTVSPropertyOp11
 70
     1
102
RTVSPropertyOp12
 70
     1
102
RTVSPropertyOp13
 70
     1
102
RTVSPropertyOp14
 70
     1
102
RTVSPropertyOp15
 70
     1
102
RTVSPropertyOp16
 70
     1
102
RTVSPropertyOp17
 70
     1
102
RTVSPropertyOp18
 70
     1
102
RTVSPropertyOp19
 70
     1
102
RTVSPropertyOp20
 70
     1
102
RTVSPropertyOp21
 70
     1
102
RTVSPropertyOp22
 70
     1
102
RTVSPropertyOp23
 70
     1
102
RTVSPropertyOp24
 70
     1
102
RTVSPropertyOp25
 70
     1
102
RTVSPropertyOp26
 70
     1
102
RTVSPropertyOp27
 70
     1
102
RTVSPropertyOp28
 70
     1
102
RTVSPropertyOp29
 70
     1
102
RTVSPropertyOp30
 70
     1
102
RTVSPropertyOp31
 70
     1
102
RTVSPropertyOp32
 70
     1
102
RTVSPropertyOp33
 70
     1
102
RTVSPropertyOp34
 70
     1
102
RTVSPropertyOp35
 70
     1
102
RTVSPropertyOp36
 70
     1
102
RTVSPropertyOp37
 70
     1
102
RTVSPropertyOp38
 70
     1
102
RTVSPropertyOp39
 70
     1
102
RTVSPropertyOp40
 70
     1
102
RTVSPropertyOp41
 70
     1
102
RTVSPropertyOp42
 70
     1
102
RTVSPropertyOp43
 70
     1
102
RTVSPropertyOp44
 70
     1
102
RTVSPropertyOp45
 70
     1
102
RTVSPropertyOp46
 70
     1
102
RTVSPropertyOp47
 70
     1
102
RTVSPropertyOp48
 70
     1
102
RTVSPropertyOp49
 70
     1
102
RTVSPropertyOp50
 70
     1
102
RTVSPropertyOp51
 70
     0
102
RTVSPropertyOp52
 70
     0
102
RTVSPropertyOp53
 70
     1
102
RTVSPropertyOp54
 70
     1
102
RTVSPropertyOp55
 70
     1
102
RTVSPropertyOp56
 70
     1
102
RTVSPropertyOp57
 70
     1
102
RTVSPost2010Prop28
280
     0
102
RTVSPost2010PropOp28
 70
     1
102
RTVSPost2010Prop29
280
     1
102
RTVSPost2010PropOp29
 70
     1
102
RTVSPost2010Prop30
280
     1
102
RTVSPost2010PropOp30
 70
     1
102
RTVSPost2010Prop31
280
     0
102
RTVSPost2010PropOp31
 70
     1
102
RTVSPost2010Prop32
280
     0
102
RTVSPost2010PropOp32
 70
     1
102
RTVSPost2010Prop33
280
     0
102
RTVSPost2010PropOp33
 70
     1
102
RTVSPost2010Prop34
280
     0
102
RTVSPost2010PropOp34
 70
     1
102
RTVSPost2010Prop35
280
     0
102
RTVSPost2010PropOp35
 70
     1
102
RTVSPost2010Prop36
280
     0
102
RTVSPost2010PropOp36
 70
     1
102
RTVSPost2010Prop37
 90
       50
102
RTVSPost2010PropOp37
 70
     1
102
RTVSPost2010Prop38
140
0.0
102
RTVSPost2010PropOp38
 70
     1
102
RTVSPost2010Prop39
140
1.0
102
RTVSPost2010PropOp39
 70
     1
102
RTVSPost2010Prop40
 90
        0
102
RTVSPost2010PropOp40
 70
     1
102
RTVSPost2010Prop41ColorIndex
 90
       18
102
RTVSPost2010Prop41ColorRGB
 90
        0
102
RTVSPost2010PropOp41
 70
     1
102
RTVSPost2010Prop42
 90
       50
102
RTVSPost2010PropOp42
 70
     1
102
RTVSPost2010Prop43
 90
        3
102
RTVSPost2010PropOp43
 70
     1
102
RTVSPost2010Prop44ColorIndex
 90
        5
102
RTVSPost2010Prop44ColorRGB
 90
      255
102
RTVSPost2010PropOp44
 70
     1
102
RTVSPost2010Prop45
280
     0
102
RTVSPost2010PropOp45
 70
     1
102
RTVSPost2010Prop46
 90
       50
102
RTVSPost2010PropOp46
 70
     1
102
RTVSPost2010Prop47
 90
       50
102
RTVSPost2010PropOp47
 70
     1
102
RTVSPost2010Prop48
 90
       50
102
RTVSPost2010PropOp48
 70
     1
102
RTVSPost2010Prop49
280
     0
102
RTVSPost2010PropOp49
 70
     1
102
RTVSPost2010Prop50
 90
       50
102
RTVSPost2010PropOp50
 70
     1
102
RTVSPost2010Prop51ColorIndex
 90
      256
102
RTVSPost2010Prop51ColorRGB
 90
-16777216
102
RTVSPost2010PropOp51
 70
     0
102
RTVSPost2010Prop52
140
1.0
102
RTVSPost2010PropOp52
 70
     0
102
RTVSPost2010Prop53
 90
        2
102
RTVSPost2010PropOp53
 70
     1
102
RTVSPost2010Prop54
  1
strokes_ogs.tif
102
RTVSPost2010PropOp54
 70
     1
102
RTVSPost2010Prop55
280
     0
102
RTVSPost2010PropOp55
 70
     1
102
RTVSPost2010Prop56
140
1.0
102
RTVSPost2010PropOp56
 70
     1
102
RTVSPost2010Prop57
140
1.0
102
RTVSPost2010PropOp57
 70
     1
  0
XRECORD
  5
2BB
102
{ACAD_REACTORS
330
2BA
102
}
330
2BA
100
AcDbXrecord
280
     1
102
RTVSPropertyOp0
 70
     1
102
RTVSPropertyOp1
 70
     1
102
RTVSPropertyOp2
 70
     1
102
RTVSPropertyOp3
 70
     1
102
RTVSPropertyOp4
 70
     1
102
RTVSPropertyOp5
 70
     1
102
RTVSPropertyOp6
 70
     1
102
RTVSPropertyOp7
 70
     1
102
RTVSPropertyOp8
 70
     1
102
RTVSPropertyOp9
 70
     1
102
RTVSPropertyOp10
 70
     1
102
RTVSPropertyOp11
 70
     1
102
RTVSPropertyOp12
 70
     1
102
RTVSPropertyOp13
 70
     1
102
RTVSPropertyOp14
 70
     1
102
RTVSPropertyOp15
 70
     1
102
RTVSPropertyOp16
 70
     1
102
RTVSPropertyOp17
 70
     1
102
RTVSPropertyOp18
 70
     1
102
RTVSPropertyOp19
 70
     1
102
RTVSPropertyOp20
 70
     1
102
RTVSPropertyOp21
 70
     1
102
RTVSPropertyOp22
 70
     1
102
RTVSPropertyOp23
 70
     1
102
RTVSPropertyOp24
 70
     1
102
RTVSPropertyOp25
 70
     1
102
RTVSPropertyOp26
 70
     1
102
RTVSPropertyOp27
 70
     1
102
RTVSPropertyOp28
 70
     1
102
RTVSPropertyOp29
 70
     1
102
RTVSPropertyOp30
 70
     1
102
RTVSPropertyOp31
 70
     1
102
RTVSPropertyOp32
 70
     1
102
RTVSPropertyOp33
 70
     1
102
RTVSPropertyOp34
 70
     1
102
RTVSPropertyOp35
 70
     1
102
RTVSPropertyOp36
 70
     1
102
RTVSPropertyOp37
 70
     1
102
RTVSPropertyOp38
 70
     1
102
RTVSPropertyOp39
 70
     1
102
RTVSPropertyOp40
 70
     1
102
RTVSPropertyOp41
 70
     1
102
RTVSPropertyOp42
 70
     1
102
RTVSPropertyOp43
 70
     1
102
RTVSPropertyOp44
 70
     1
102
RTVSPropertyOp45
 70
     1
102
RTVSPropertyOp46
 70
     1
102
RTVSPropertyOp47
 70
     1
102
RTVSPropertyOp48
 70
     1
102
RTVSPropertyOp49
 70
     1
102
RTVSPropertyOp50
 70
     1
102
RTVSPropertyOp51
 70
     0
102
RTVSPropertyOp52
 70
     0
102
RTVSPropertyOp53
 70
     1
102
RTVSPropertyOp54
 70
     1
102
RTVSPropertyOp55
 70
     1
102
RTVSPropertyOp56
 70
     1
102
RTVSPropertyOp57
 70
     1
102
RTVSPost2010Prop28
280
     0
102
RTVSPost2010PropOp28
 70
     1
102
RTVSPost2010Prop29
280
     1
102
RTVSPost2010PropOp29
 70
     1
102
RTVSPost2010Prop30
280
     1
102
RTVSPost2010PropOp30
 70
     1
102
RTVSPost2010Prop31
280
     0
102
RTVSPost2010PropOp31
 70
     1
102
RTVSPost2010Prop32
280
     0
102
RTVSPost2010PropOp32
 70
     1
102
RTVSPost2010Prop33
280
     0
102
RTVSPost2010PropOp33
 70
     1
102
RTVSPost2010Prop34
280
     0
102
RTVSPost2010PropOp34
 70
     1
102
RTVSPost2010Prop35
280
     0
102
RTVSPost2010PropOp35
 70
     1
102
RTVSPost2010Prop36
280
     0
102
RTVSPost2010PropOp36
 70
     1
102
RTVSPost2010Prop37
 90
       50
102
RTVSPost2010PropOp37
 70
     1
102
RTVSPost2010Prop38
140
0.0
102
RTVSPost2010PropOp38
 70
     1
102
RTVSPost2010Prop39
140
1.0
102
RTVSPost2010PropOp39
 70
     1
102
RTVSPost2010Prop40
 90
        0
102
RTVSPost2010PropOp40
 70
     1
102
RTVSPost2010Prop41ColorIndex
 90
       18
102
RTVSPost2010Prop41ColorRGB
 90
        0
102
RTVSPost2010PropOp41
 70
     1
102
RTVSPost2010Prop42
 90
       50
102
RTVSPost2010PropOp42
 70
     1
102
RTVSPost2010Prop43
 90
        3
102
RTVSPost2010PropOp43
 70
     1
102
RTVSPost2010Prop44ColorIndex
 90
        5
102
RTVSPost2010Prop44ColorRGB
 90
      255
102
RTVSPost2010PropOp44
 70
     1
102
RTVSPost2010Prop45
280
     0
102
RTVSPost2010PropOp45
 70
     1
102
RTVSPost2010Prop46
 90
       50
102
RTVSPost2010PropOp46
 70
     1
102
RTVSPost2010Prop47
 90
       50
102
RTVSPost2010PropOp47
 70
     1
102
RTVSPost2010Prop48
 90
       50
102
RTVSPost2010PropOp48
 70
     1
102
RTVSPost2010Prop49
280
     0
102
RTVSPost2010PropOp49
 70
     1
102
RTVSPost2010Prop50
 90
       50
102
RTVSPost2010PropOp50
 70
     1
102
RTVSPost2010Prop51ColorIndex
 90
      256
102
RTVSPost2010Prop51ColorRGB
 90
-16777216
102
RTVSPost2010PropOp51
 70
     0
102
RTVSPost2010Prop52
140
1.0
102
RTVSPost2010PropOp52
 70
     0
102
RTVSPost2010Prop53
 90
        2
102
RTVSPost2010PropOp53
 70
     1
102
RTVSPost2010Prop54
  1
strokes_ogs.tif
102
RTVSPost2010PropOp54
 70
     1
102
RTVSPost2010Prop55
280
     0
102
RTVSPost2010PropOp55
 70
     1
102
RTVSPost2010Prop56
140
1.0
102
RTVSPost2010PropOp56
 70
     1
102
RTVSPost2010Prop57
140
1.0
102
RTVSPost2010PropOp57
 70
     1
  0
XRECORD
  5
2AF
102
{ACAD_REACTORS
330
2AE
102
}
330
2AE
100
AcDbXrecord
280
     1
102
RTVSPropertyOp0
 70
     1
102
RTVSPropertyOp1
 70
     1
102
RTVSPropertyOp2
 70
     1
102
RTVSPropertyOp3
 70
     1
102
RTVSPropertyOp4
 70
     1
102
RTVSPropertyOp5
 70
     1
102
RTVSPropertyOp6
 70
     1
102
RTVSPropertyOp7
 70
     1
102
RTVSPropertyOp8
 70
     1
102
RTVSPropertyOp9
 70
     1
102
RTVSPropertyOp10
 70
     1
102
RTVSPropertyOp11
 70
     1
102
RTVSPropertyOp12
 70
     1
102
RTVSPropertyOp13
 70
     1
102
RTVSPropertyOp14
 70
     1
102
RTVSPropertyOp15
 70
     1
102
RTVSPropertyOp16
 70
     1
102
RTVSPropertyOp17
 70
     1
102
RTVSPropertyOp18
 70
     1
102
RTVSPropertyOp19
 70
     1
102
RTVSPropertyOp20
 70
     1
102
RTVSPropertyOp21
 70
     1
102
RTVSPropertyOp22
 70
     1
102
RTVSPropertyOp23
 70
     1
102
RTVSPropertyOp24
 70
     1
102
RTVSPropertyOp25
 70
     1
102
RTVSPropertyOp26
 70
     1
102
RTVSPropertyOp27
 70
     1
102
RTVSPropertyOp28
 70
     1
102
RTVSPropertyOp29
 70
     1
102
RTVSPropertyOp30
 70
     1
102
RTVSPropertyOp31
 70
     1
102
RTVSPropertyOp32
 70
     1
102
RTVSPropertyOp33
 70
     1
102
RTVSPropertyOp34
 70
     1
102
RTVSPropertyOp35
 70
     1
102
RTVSPropertyOp36
 70
     1
102
RTVSPropertyOp37
 70
     1
102
RTVSPropertyOp38
 70
     1
102
RTVSPropertyOp39
 70
     1
102
RTVSPropertyOp40
 70
     1
102
RTVSPropertyOp41
 70
     1
102
RTVSPropertyOp42
 70
     1
102
RTVSPropertyOp43
 70
     1
102
RTVSPropertyOp44
 70
     1
102
RTVSPropertyOp45
 70
     1
102
RTVSPropertyOp46
 70
     1
102
RTVSPropertyOp47
 70
     1
102
RTVSPropertyOp48
 70
     1
102
RTVSPropertyOp49
 70
     1
102
RTVSPropertyOp50
 70
     1
102
RTVSPropertyOp51
 70
     0
102
RTVSPropertyOp52
 70
     0
102
RTVSPropertyOp53
 70
     1
102
RTVSPropertyOp54
 70
     1
102
RTVSPropertyOp55
 70
     1
102
RTVSPropertyOp56
 70
     1
102
RTVSPropertyOp57
 70
     1
102
RTVSPost2010Prop28
280
     0
102
RTVSPost2010PropOp28
 70
     1
102
RTVSPost2010Prop29
280
     1
102
RTVSPost2010PropOp29
 70
     1
102
RTVSPost2010Prop30
280
     1
102
RTVSPost2010PropOp30
 70
     1
102
RTVSPost2010Prop31
280
     0
102
RTVSPost2010PropOp31
 70
     1
102
RTVSPost2010Prop32
280
     0
102
RTVSPost2010PropOp32
 70
     1
102
RTVSPost2010Prop33
280
     0
102
RTVSPost2010PropOp33
 70
     1
102
RTVSPost2010Prop34
280
     0
102
RTVSPost2010PropOp34
 70
     1
102
RTVSPost2010Prop35
280
     0
102
RTVSPost2010PropOp35
 70
     1
102
RTVSPost2010Prop36
280
     0
102
RTVSPost2010PropOp36
 70
     1
102
RTVSPost2010Prop37
 90
       50
102
RTVSPost2010PropOp37
 70
     1
102
RTVSPost2010Prop38
140
0.0
102
RTVSPost2010PropOp38
 70
     1
102
RTVSPost2010Prop39
140
1.0
102
RTVSPost2010PropOp39
 70
     1
102
RTVSPost2010Prop40
 90
        0
102
RTVSPost2010PropOp40
 70
     1
102
RTVSPost2010Prop41ColorIndex
 90
       18
102
RTVSPost2010Prop41ColorRGB
 90
        0
102
RTVSPost2010PropOp41
 70
     1
102
RTVSPost2010Prop42
 90
       50
102
RTVSPost2010PropOp42
 70
     1
102
RTVSPost2010Prop43
 90
        3
102
RTVSPost2010PropOp43
 70
     1
102
RTVSPost2010Prop44ColorIndex
 90
        5
102
RTVSPost2010Prop44ColorRGB
 90
      255
102
RTVSPost2010PropOp44
 70
     1
102
RTVSPost2010Prop45
280
     0
102
RTVSPost2010PropOp45
 70
     1
102
RTVSPost2010Prop46
 90
       50
102
RTVSPost2010PropOp46
 70
     1
102
RTVSPost2010Prop47
 90
       50
102
RTVSPost2010PropOp47
 70
     1
102
RTVSPost2010Prop48
 90
       50
102
RTVSPost2010PropOp48
 70
     1
102
RTVSPost2010Prop49
280
     0
102
RTVSPost2010PropOp49
 70
     1
102
RTVSPost2010Prop50
 90
       50
102
RTVSPost2010PropOp50
 70
     1
102
RTVSPost2010Prop51ColorIndex
 90
      256
102
RTVSPost2010Prop51ColorRGB
 90
-16777216
102
RTVSPost2010PropOp51
 70
     0
102
RTVSPost2010Prop52
140
1.0
102
RTVSPost2010PropOp52
 70
     0
102
RTVSPost2010Prop53
 90
        2
102
RTVSPost2010PropOp53
 70
     1
102
RTVSPost2010Prop54
  1
strokes_ogs.tif
102
RTVSPost2010PropOp54
 70
     1
102
RTVSPost2010Prop55
280
     0
102
RTVSPost2010PropOp55
 70
     1
102
RTVSPost2010Prop56
140
1.0
102
RTVSPost2010PropOp56
 70
     1
102
RTVSPost2010Prop57
140
1.0
102
RTVSPost2010PropOp57
 70
     1
  0
XRECORD
  5
2B1
102
{ACAD_REACTORS
330
2B0
102
}
330
2B0
100
AcDbXrecord
280
     1
102
RTVSPropertyOp0
 70
     1
102
RTVSPropertyOp1
 70
     1
102
RTVSPropertyOp2
 70
     1
102
RTVSPropertyOp3
 70
     1
102
RTVSPropertyOp4
 70
     1
102
RTVSPropertyOp5
 70
     1
102
RTVSPropertyOp6
 70
     1
102
RTVSPropertyOp7
 70
     1
102
RTVSPropertyOp8
 70
     1
102
RTVSPropertyOp9
 70
     1
102
RTVSPropertyOp10
 70
     1
102
RTVSPropertyOp11
 70
     1
102
RTVSPropertyOp12
 70
     1
102
RTVSPropertyOp13
 70
     1
102
RTVSPropertyOp14
 70
     1
102
RTVSPropertyOp15
 70
     1
102
RTVSPropertyOp16
 70
     1
102
RTVSPropertyOp17
 70
     1
102
RTVSPropertyOp18
 70
     1
102
RTVSPropertyOp19
 70
     1
102
RTVSPropertyOp20
 70
     1
102
RTVSPropertyOp21
 70
     1
102
RTVSPropertyOp22
 70
     1
102
RTVSPropertyOp23
 70
     1
102
RTVSPropertyOp24
 70
     1
102
RTVSPropertyOp25
 70
     1
102
RTVSPropertyOp26
 70
     1
102
RTVSPropertyOp27
 70
     1
102
RTVSPropertyOp28
 70
     1
102
RTVSPropertyOp29
 70
     1
102
RTVSPropertyOp30
 70
     1
102
RTVSPropertyOp31
 70
     1
102
RTVSPropertyOp32
 70
     1
102
RTVSPropertyOp33
 70
     1
102
RTVSPropertyOp34
 70
     1
102
RTVSPropertyOp35
 70
     1
102
RTVSPropertyOp36
 70
     1
102
RTVSPropertyOp37
 70
     1
102
RTVSPropertyOp38
 70
     1
102
RTVSPropertyOp39
 70
     1
102
RTVSPropertyOp40
 70
     1
102
RTVSPropertyOp41
 70
     1
102
RTVSPropertyOp42
 70
     1
102
RTVSPropertyOp43
 70
     1
102
RTVSPropertyOp44
 70
     1
102
RTVSPropertyOp45
 70
     1
102
RTVSPropertyOp46
 70
     1
102
RTVSPropertyOp47
 70
     1
102
RTVSPropertyOp48
 70
     1
102
RTVSPropertyOp49
 70
     1
102
RTVSPropertyOp50
 70
     1
102
RTVSPropertyOp51
 70
     0
102
RTVSPropertyOp52
 70
     0
102
RTVSPropertyOp53
 70
     1
102
RTVSPropertyOp54
 70
     1
102
RTVSPropertyOp55
 70
     1
102
RTVSPropertyOp56
 70
     1
102
RTVSPropertyOp57
 70
     1
102
RTVSPost2010Prop28
280
     0
102
RTVSPost2010PropOp28
 70
     1
102
RTVSPost2010Prop29
280
     1
102
RTVSPost2010PropOp29
 70
     1
102
RTVSPost2010Prop30
280
     1
102
RTVSPost2010PropOp30
 70
     1
102
RTVSPost2010Prop31
280
     0
102
RTVSPost2010PropOp31
 70
     1
102
RTVSPost2010Prop32
280
     0
102
RTVSPost2010PropOp32
 70
     1
102
RTVSPost2010Prop33
280
     0
102
RTVSPost2010PropOp33
 70
     1
102
RTVSPost2010Prop34
280
     0
102
RTVSPost2010PropOp34
 70
     1
102
RTVSPost2010Prop35
280
     0
102
RTVSPost2010PropOp35
 70
     1
102
RTVSPost2010Prop36
280
     0
102
RTVSPost2010PropOp36
 70
     1
102
RTVSPost2010Prop37
 90
       50
102
RTVSPost2010PropOp37
 70
     1
102
RTVSPost2010Prop38
140
0.0
102
RTVSPost2010PropOp38
 70
     1
102
RTVSPost2010Prop39
140
1.0
102
RTVSPost2010PropOp39
 70
     1
102
RTVSPost2010Prop40
 90
        0
102
RTVSPost2010PropOp40
 70
     1
102
RTVSPost2010Prop41ColorIndex
 90
       18
102
RTVSPost2010Prop41ColorRGB
 90
        0
102
RTVSPost2010PropOp41
 70
     1
102
RTVSPost2010Prop42
 90
       50
102
RTVSPost2010PropOp42
 70
     1
102
RTVSPost2010Prop43
 90
        3
102
RTVSPost2010PropOp43
 70
     1
102
RTVSPost2010Prop44ColorIndex
 90
        5
102
RTVSPost2010Prop44ColorRGB
 90
      255
102
RTVSPost2010PropOp44
 70
     1
102
RTVSPost2010Prop45
280
     0
102
RTVSPost2010PropOp45
 70
     1
102
RTVSPost2010Prop46
 90
       50
102
RTVSPost2010PropOp46
 70
     1
102
RTVSPost2010Prop47
 90
       50
102
RTVSPost2010PropOp47
 70
     1
102
RTVSPost2010Prop48
 90
       50
102
RTVSPost2010PropOp48
 70
     1
102
RTVSPost2010Prop49
280
     0
102
RTVSPost2010PropOp49
 70
     1
102
RTVSPost2010Prop50
 90
       50
102
RTVSPost2010PropOp50
 70
     1
102
RTVSPost2010Prop51ColorIndex
 90
      256
102
RTVSPost2010Prop51ColorRGB
 90
-16777216
102
RTVSPost2010PropOp51
 70
     0
102
RTVSPost2010Prop52
140
1.0
102
RTVSPost2010PropOp52
 70
     0
102
RTVSPost2010Prop53
 90
        2
102
RTVSPost2010PropOp53
 70
     1
102
RTVSPost2010Prop54
  1
strokes_ogs.tif
102
RTVSPost2010PropOp54
 70
     1
102
RTVSPost2010Prop55
280
     0
102
RTVSPost2010PropOp55
 70
     1
102
RTVSPost2010Prop56
140
1.0
102
RTVSPost2010PropOp56
 70
     1
102
RTVSPost2010Prop57
140
1.0
102
RTVSPost2010PropOp57
 70
     1
  0
XRECORD
  5
2C1
102
{ACAD_REACTORS
330
2C0
102
}
330
2C0
100
AcDbXrecord
280
     1
102
RTVSPropertyOp0
 70
     0
102
RTVSPropertyOp1
 70
     0
102
RTVSPropertyOp2
 70
     0
102
RTVSPropertyOp3
 70
     0
102
RTVSPropertyOp4
 70
     0
102
RTVSPropertyOp5
 70
     0
102
RTVSPropertyOp6
 70
     0
102
RTVSPropertyOp7
 70
     0
102
RTVSPropertyOp8
 70
     0
102
RTVSPropertyOp9
 70
     0
102
RTVSPropertyOp10
 70
     0
102
RTVSPropertyOp11
 70
     0
102
RTVSPropertyOp12
 70
     0
102
RTVSPropertyOp13
 70
     0
102
RTVSPropertyOp14
 70
     0
102
RTVSPropertyOp15
 70
     0
102
RTVSPropertyOp16
 70
     0
102
RTVSPropertyOp17
 70
     0
102
RTVSPropertyOp18
 70
     0
102
RTVSPropertyOp19
 70
     0
102
RTVSPropertyOp20
 70
     0
102
RTVSPropertyOp21
 70
     0
102
RTVSPropertyOp22
 70
     0
102
RTVSPropertyOp23
 70
     0
102
RTVSPropertyOp24
 70
     0
102
RTVSPropertyOp25
 70
     0
102
RTVSPropertyOp26
 70
     0
102
RTVSPropertyOp27
 70
     0
102
RTVSPropertyOp28
 70
     1
102
RTVSPropertyOp29
 70
     1
102
RTVSPropertyOp30
 70
     1
102
RTVSPropertyOp31
 70
     1
102
RTVSPropertyOp32
 70
     1
102
RTVSPropertyOp33
 70
     1
102
RTVSPropertyOp34
 70
     1
102
RTVSPropertyOp35
 70
     1
102
RTVSPropertyOp36
 70
     1
102
RTVSPropertyOp37
 70
     1
102
RTVSPropertyOp38
 70
     1
102
RTVSPropertyOp39
 70
     1
102
RTVSPropertyOp40
 70
     1
102
RTVSPropertyOp41
 70
     1
102
RTVSPropertyOp42
 70
     1
102
RTVSPropertyOp43
 70
     1
102
RTVSPropertyOp44
 70
     1
102
RTVSPropertyOp45
 70
     1
102
RTVSPropertyOp46
 70
     1
102
RTVSPropertyOp47
 70
     1
102
RTVSPropertyOp48
 70
     1
102
RTVSPropertyOp49
 70
     1
102
RTVSPropertyOp50
 70
     1
102
RTVSPropertyOp51
 70
     0
102
RTVSPropertyOp52
 70
     0
102
RTVSPropertyOp53
 70
     1
102
RTVSPropertyOp54
 70
     1
102
RTVSPropertyOp55
 70
     1
102
RTVSPropertyOp56
 70
     1
102
RTVSPropertyOp57
 70
     1
102
RTVSPost2010Prop28
280
     0
102
RTVSPost2010PropOp28
 70
     1
102
RTVSPost2010Prop29
280
     1
102
RTVSPost2010PropOp29
 70
     1
102
RTVSPost2010Prop30
280
     1
102
RTVSPost2010PropOp30
 70
     1
102
RTVSPost2010Prop31
280
     0
102
RTVSPost2010PropOp31
 70
     1
102
RTVSPost2010Prop32
280
     0
102
RTVSPost2010PropOp32
 70
     1
102
RTVSPost2010Prop33
280
     0
102
RTVSPost2010PropOp33
 70
     1
102
RTVSPost2010Prop34
280
     0
102
RTVSPost2010PropOp34
 70
     1
102
RTVSPost2010Prop35
280
     0
102
RTVSPost2010PropOp35
 70
     1
102
RTVSPost2010Prop36
280
     0
102
RTVSPost2010PropOp36
 70
     1
102
RTVSPost2010Prop37
 90
       50
102
RTVSPost2010PropOp37
 70
     1
102
RTVSPost2010Prop38
140
0.0
102
RTVSPost2010PropOp38
 70
     1
102
RTVSPost2010Prop39
140
1.0
102
RTVSPost2010PropOp39
 70
     1
102
RTVSPost2010Prop40
 90
        0
102
RTVSPost2010PropOp40
 70
     1
102
RTVSPost2010Prop41ColorIndex
 90
       18
102
RTVSPost2010Prop41ColorRGB
 90
        0
102
RTVSPost2010PropOp41
 70
     1
102
RTVSPost2010Prop42
 90
       50
102
RTVSPost2010PropOp42
 70
     1
102
RTVSPost2010Prop43
 90
        3
102
RTVSPost2010PropOp43
 70
     1
102
RTVSPost2010Prop44ColorIndex
 90
        5
102
RTVSPost2010Prop44ColorRGB
 90
      255
102
RTVSPost2010PropOp44
 70
     1
102
RTVSPost2010Prop45
280
     0
102
RTVSPost2010PropOp45
 70
     1
102
RTVSPost2010Prop46
 90
       50
102
RTVSPost2010PropOp46
 70
     1
102
RTVSPost2010Prop47
 90
       50
102
RTVSPost2010PropOp47
 70
     1
102
RTVSPost2010Prop48
 90
       50
102
RTVSPost2010PropOp48
 70
     1
102
RTVSPost2010Prop49
280
     0
102
RTVSPost2010PropOp49
 70
     1
102
RTVSPost2010Prop50
 90
       50
102
RTVSPost2010PropOp50
 70
     1
102
RTVSPost2010Prop51ColorIndex
 90
      256
102
RTVSPost2010Prop51ColorRGB
 90
-16777216
102
RTVSPost2010PropOp51
 70
     0
102
RTVSPost2010Prop52
140
1.0
102
RTVSPost2010PropOp52
 70
     0
102
RTVSPost2010Prop53
 90
        2
102
RTVSPost2010PropOp53
 70
     1
102
RTVSPost2010Prop54
  1
strokes_ogs.tif
102
RTVSPost2010PropOp54
 70
     1
102
RTVSPost2010Prop55
280
     0
102
RTVSPost2010PropOp55
 70
     1
102
RTVSPost2010Prop56
140
1.0
102
RTVSPost2010PropOp56
 70
     1
102
RTVSPost2010Prop57
140
1.0
102
RTVSPost2010PropOp57
 70
     1
  0
XRECORD
  5
2B9
102
{ACAD_REACTORS
330
2B8
102
}
330
2B8
100
AcDbXrecord
280
     1
102
RTVSPropertyOp0
 70
     1
102
RTVSPropertyOp1
 70
     1
102
RTVSPropertyOp2
 70
     1
102
RTVSPropertyOp3
 70
     1
102
RTVSPropertyOp4
 70
     1
102
RTVSPropertyOp5
 70
     1
102
RTVSPropertyOp6
 70
     1
102
RTVSPropertyOp7
 70
     1
102
RTVSPropertyOp8
 70
     1
102
RTVSPropertyOp9
 70
     1
102
RTVSPropertyOp10
 70
     1
102
RTVSPropertyOp11
 70
     1
102
RTVSPropertyOp12
 70
     1
102
RTVSPropertyOp13
 70
     1
102
RTVSPropertyOp14
 70
     1
102
RTVSPropertyOp15
 70
     1
102
RTVSPropertyOp16
 70
     1
102
RTVSPropertyOp17
 70
     1
102
RTVSPropertyOp18
 70
     1
102
RTVSPropertyOp19
 70
     1
102
RTVSPropertyOp20
 70
     1
102
RTVSPropertyOp21
 70
     1
102
RTVSPropertyOp22
 70
     1
102
RTVSPropertyOp23
 70
     1
102
RTVSPropertyOp24
 70
     1
102
RTVSPropertyOp25
 70
     1
102
RTVSPropertyOp26
 70
     1
102
RTVSPropertyOp27
 70
     1
102
RTVSPropertyOp28
 70
     1
102
RTVSPropertyOp29
 70
     1
102
RTVSPropertyOp30
 70
     1
102
RTVSPropertyOp31
 70
     1
102
RTVSPropertyOp32
 70
     1
102
RTVSPropertyOp33
 70
     1
102
RTVSPropertyOp34
 70
     1
102
RTVSPropertyOp35
 70
     1
102
RTVSPropertyOp36
 70
     1
102
RTVSPropertyOp37
 70
     1
102
RTVSPropertyOp38
 70
     1
102
RTVSPropertyOp39
 70
     1
102
RTVSPropertyOp40
 70
     1
102
RTVSPropertyOp41
 70
     1
102
RTVSPropertyOp42
 70
     1
102
RTVSPropertyOp43
 70
     1
102
RTVSPropertyOp44
 70
     1
102
RTVSPropertyOp45
 70
     1
102
RTVSPropertyOp46
 70
     1
102
RTVSPropertyOp47
 70
     1
102
RTVSPropertyOp48
 70
     1
102
RTVSPropertyOp49
 70
     1
102
RTVSPropertyOp50
 70
     1
102
RTVSPropertyOp51
 70
     0
102
RTVSPropertyOp52
 70
     0
102
RTVSPropertyOp53
 70
     1
102
RTVSPropertyOp54
 70
     1
102
RTVSPropertyOp55
 70
     1
102
RTVSPropertyOp56
 70
     1
102
RTVSPropertyOp57
 70
     1
102
RTVSPost2010Prop28
280
     0
102
RTVSPost2010PropOp28
 70
     1
102
RTVSPost2010Prop29
280
     1
102
RTVSPost2010PropOp29
 70
     1
102
RTVSPost2010Prop30
280
     1
102
RTVSPost2010PropOp30
 70
     1
102
RTVSPost2010Prop31
280
     0
102
RTVSPost2010PropOp31
 70
     1
102
RTVSPost2010Prop32
280
     0
102
RTVSPost2010PropOp32
 70
     1
102
RTVSPost2010Prop33
280
     0
102
RTVSPost2010PropOp33
 70
     1
102
RTVSPost2010Prop34
280
     0
102
RTVSPost2010PropOp34
 70
     1
102
RTVSPost2010Prop35
280
     0
102
RTVSPost2010PropOp35
 70
     1
102
RTVSPost2010Prop36
280
     0
102
RTVSPost2010PropOp36
 70
     1
102
RTVSPost2010Prop37
 90
       50
102
RTVSPost2010PropOp37
 70
     1
102
RTVSPost2010Prop38
140
0.0
102
RTVSPost2010PropOp38
 70
     1
102
RTVSPost2010Prop39
140
1.0
102
RTVSPost2010PropOp39
 70
     1
102
RTVSPost2010Prop40
 90
        0
102
RTVSPost2010PropOp40
 70
     1
102
RTVSPost2010Prop41ColorIndex
 90
       18
102
RTVSPost2010Prop41ColorRGB
 90
        0
102
RTVSPost2010PropOp41
 70
     1
102
RTVSPost2010Prop42
 90
       50
102
RTVSPost2010PropOp42
 70
     1
102
RTVSPost2010Prop43
 90
        3
102
RTVSPost2010PropOp43
 70
     1
102
RTVSPost2010Prop44ColorIndex
 90
        5
102
RTVSPost2010Prop44ColorRGB
 90
      255
102
RTVSPost2010PropOp44
 70
     1
102
RTVSPost2010Prop45
280
     0
102
RTVSPost2010PropOp45
 70
     1
102
RTVSPost2010Prop46
 90
       50
102
RTVSPost2010PropOp46
 70
     1
102
RTVSPost2010Prop47
 90
       50
102
RTVSPost2010PropOp47
 70
     1
102
RTVSPost2010Prop48
 90
       50
102
RTVSPost2010PropOp48
 70
     1
102
RTVSPost2010Prop49
280
     0
102
RTVSPost2010PropOp49
 70
     1
102
RTVSPost2010Prop50
 90
       50
102
RTVSPost2010PropOp50
 70
     1
102
RTVSPost2010Prop51ColorIndex
 90
      256
102
RTVSPost2010Prop51ColorRGB
 90
-16777216
102
RTVSPost2010PropOp51
 70
     0
102
RTVSPost2010Prop52
140
1.0
102
RTVSPost2010PropOp52
 70
     0
102
RTVSPost2010Prop53
 90
        2
102
RTVSPost2010PropOp53
 70
     1
102
RTVSPost2010Prop54
  1
strokes_ogs.tif
102
RTVSPost2010PropOp54
 70
     1
102
RTVSPost2010Prop55
280
     0
102
RTVSPost2010PropOp55
 70
     1
102
RTVSPost2010Prop56
140
1.0
102
RTVSPost2010PropOp56
 70
     1
102
RTVSPost2010Prop57
140
1.0
102
RTVSPost2010PropOp57
 70
     1
  0
XRECORD
  5
29D
102
{ACAD_REACTORS
330
29C
102
}
330
29C
100
AcDbXrecord
280
     1
102
RTVSPropertyOp0
 70
     1
102
RTVSPropertyOp1
 70
     1
102
RTVSPropertyOp2
 70
     1
102
RTVSPropertyOp3
 70
     1
102
RTVSPropertyOp4
 70
     1
102
RTVSPropertyOp5
 70
     1
102
RTVSPropertyOp6
 70
     1
102
RTVSPropertyOp7
 70
     1
102
RTVSPropertyOp8
 70
     1
102
RTVSPropertyOp9
 70
     1
102
RTVSPropertyOp10
 70
     1
102
RTVSPropertyOp11
 70
     1
102
RTVSPropertyOp12
 70
     1
102
RTVSPropertyOp13
 70
     1
102
RTVSPropertyOp14
 70
     1
102
RTVSPropertyOp15
 70
     1
102
RTVSPropertyOp16
 70
     1
102
RTVSPropertyOp17
 70
     1
102
RTVSPropertyOp18
 70
     1
102
RTVSPropertyOp19
 70
     1
102
RTVSPropertyOp20
 70
     1
102
RTVSPropertyOp21
 70
     1
102
RTVSPropertyOp22
 70
     1
102
RTVSPropertyOp23
 70
     1
102
RTVSPropertyOp24
 70
     1
102
RTVSPropertyOp25
 70
     1
102
RTVSPropertyOp26
 70
     1
102
RTVSPropertyOp27
 70
     1
102
RTVSPropertyOp28
 70
     1
102
RTVSPropertyOp29
 70
     1
102
RTVSPropertyOp30
 70
     1
102
RTVSPropertyOp31
 70
     1
102
RTVSPropertyOp32
 70
     1
102
RTVSPropertyOp33
 70
     1
102
RTVSPropertyOp34
 70
     1
102
RTVSPropertyOp35
 70
     1
102
RTVSPropertyOp36
 70
     1
102
RTVSPropertyOp37
 70
     1
102
RTVSPropertyOp38
 70
     1
102
RTVSPropertyOp39
 70
     1
102
RTVSPropertyOp40
 70
     1
102
RTVSPropertyOp41
 70
     1
102
RTVSPropertyOp42
 70
     1
102
RTVSPropertyOp43
 70
     1
102
RTVSPropertyOp44
 70
     1
102
RTVSPropertyOp45
 70
     1
102
RTVSPropertyOp46
 70
     1
102
RTVSPropertyOp47
 70
     1
102
RTVSPropertyOp48
 70
     1
102
RTVSPropertyOp49
 70
     1
102
RTVSPropertyOp50
 70
     1
102
RTVSPropertyOp51
 70
     0
102
RTVSPropertyOp52
 70
     0
102
RTVSPropertyOp53
 70
     1
102
RTVSPropertyOp54
 70
     1
102
RTVSPropertyOp55
 70
     1
102
RTVSPropertyOp56
 70
     1
102
RTVSPropertyOp57
 70
     1
102
RTVSPost2010Prop28
280
     0
102
RTVSPost2010PropOp28
 70
     1
102
RTVSPost2010Prop29
280
     1
102
RTVSPost2010PropOp29
 70
     1
102
RTVSPost2010Prop30
280
     1
102
RTVSPost2010PropOp30
 70
     1
102
RTVSPost2010Prop31
280
     0
102
RTVSPost2010PropOp31
 70
     1
102
RTVSPost2010Prop32
280
     0
102
RTVSPost2010PropOp32
 70
     1
102
RTVSPost2010Prop33
280
     0
102
RTVSPost2010PropOp33
 70
     1
102
RTVSPost2010Prop34
280
     0
102
RTVSPost2010PropOp34
 70
     1
102
RTVSPost2010Prop35
280
     0
102
RTVSPost2010PropOp35
 70
     1
102
RTVSPost2010Prop36
280
     0
102
RTVSPost2010PropOp36
 70
     1
102
RTVSPost2010Prop37
 90
       50
102
RTVSPost2010PropOp37
 70
     1
102
RTVSPost2010Prop38
140
0.0
102
RTVSPost2010PropOp38
 70
     1
102
RTVSPost2010Prop39
140
1.0
102
RTVSPost2010PropOp39
 70
     1
102
RTVSPost2010Prop40
 90
        0
102
RTVSPost2010PropOp40
 70
     1
102
RTVSPost2010Prop41ColorIndex
 90
       18
102
RTVSPost2010Prop41ColorRGB
 90
        0
102
RTVSPost2010PropOp41
 70
     1
102
RTVSPost2010Prop42
 90
       50
102
RTVSPost2010PropOp42
 70
     1
102
RTVSPost2010Prop43
 90
        3
102
RTVSPost2010PropOp43
 70
     1
102
RTVSPost2010Prop44ColorIndex
 90
        5
102
RTVSPost2010Prop44ColorRGB
 90
      255
102
RTVSPost2010PropOp44
 70
     1
102
RTVSPost2010Prop45
280
     0
102
RTVSPost2010PropOp45
 70
     1
102
RTVSPost2010Prop46
 90
       50
102
RTVSPost2010PropOp46
 70
     1
102
RTVSPost2010Prop47
 90
       50
102
RTVSPost2010PropOp47
 70
     1
102
RTVSPost2010Prop48
 90
       50
102
RTVSPost2010PropOp48
 70
     1
102
RTVSPost2010Prop49
280
     0
102
RTVSPost2010PropOp49
 70
     1
102
RTVSPost2010Prop50
 90
       50
102
RTVSPost2010PropOp50
 70
     1
102
RTVSPost2010Prop51ColorIndex
 90
      256
102
RTVSPost2010Prop51ColorRGB
 90
-16777216
102
RTVSPost2010PropOp51
 70
     0
102
RTVSPost2010Prop52
140
1.0
102
RTVSPost2010PropOp52
 70
     0
102
RTVSPost2010Prop53
 90
        2
102
RTVSPost2010PropOp53
 70
     1
102
RTVSPost2010Prop54
  1
strokes_ogs.tif
102
RTVSPost2010PropOp54
 70
     1
102
RTVSPost2010Prop55
280
     0
102
RTVSPost2010PropOp55
 70
     1
102
RTVSPost2010Prop56
140
1.0
102
RTVSPost2010PropOp56
 70
     1
102
RTVSPost2010Prop57
140
1.0
102
RTVSPost2010PropOp57
 70
     1
  0
XRECORD
  5
29F
102
{ACAD_REACTORS
330
29E
102
}
330
29E
100
AcDbXrecord
280
     1
102
RTVSPropertyOp0
 70
     1
102
RTVSPropertyOp1
 70
     1
102
RTVSPropertyOp2
 70
     1
102
RTVSPropertyOp3
 70
     1
102
RTVSPropertyOp4
 70
     1
102
RTVSPropertyOp5
 70
     1
102
RTVSPropertyOp6
 70
     1
102
RTVSPropertyOp7
 70
     1
102
RTVSPropertyOp8
 70
     1
102
RTVSPropertyOp9
 70
     1
102
RTVSPropertyOp10
 70
     1
102
RTVSPropertyOp11
 70
     1
102
RTVSPropertyOp12
 70
     1
102
RTVSPropertyOp13
 70
     1
102
RTVSPropertyOp14
 70
     1
102
RTVSPropertyOp15
 70
     1
102
RTVSPropertyOp16
 70
     1
102
RTVSPropertyOp17
 70
     1
102
RTVSPropertyOp18
 70
     1
102
RTVSPropertyOp19
 70
     1
102
RTVSPropertyOp20
 70
     1
102
RTVSPropertyOp21
 70
     1
102
RTVSPropertyOp22
 70
     1
102
RTVSPropertyOp23
 70
     1
102
RTVSPropertyOp24
 70
     1
102
RTVSPropertyOp25
 70
     1
102
RTVSPropertyOp26
 70
     1
102
RTVSPropertyOp27
 70
     1
102
RTVSPropertyOp28
 70
     1
102
RTVSPropertyOp29
 70
     1
102
RTVSPropertyOp30
 70
     1
102
RTVSPropertyOp31
 70
     1
102
RTVSPropertyOp32
 70
     1
102
RTVSPropertyOp33
 70
     1
102
RTVSPropertyOp34
 70
     1
102
RTVSPropertyOp35
 70
     1
102
RTVSPropertyOp36
 70
     1
102
RTVSPropertyOp37
 70
     1
102
RTVSPropertyOp38
 70
     1
102
RTVSPropertyOp39
 70
     1
102
RTVSPropertyOp40
 70
     1
102
RTVSPropertyOp41
 70
     1
102
RTVSPropertyOp42
 70
     1
102
RTVSPropertyOp43
 70
     1
102
RTVSPropertyOp44
 70
     1
102
RTVSPropertyOp45
 70
     1
102
RTVSPropertyOp46
 70
     1
102
RTVSPropertyOp47
 70
     1
102
RTVSPropertyOp48
 70
     1
102
RTVSPropertyOp49
 70
     1
102
RTVSPropertyOp50
 70
     1
102
RTVSPropertyOp51
 70
     0
102
RTVSPropertyOp52
 70
     0
102
RTVSPropertyOp53
 70
     1
102
RTVSPropertyOp54
 70
     1
102
RTVSPropertyOp55
 70
     1
102
RTVSPropertyOp56
 70
     1
102
RTVSPropertyOp57
 70
     1
102
RTVSPost2010Prop28
280
     0
102
RTVSPost2010PropOp28
 70
     1
102
RTVSPost2010Prop29
280
     1
102
RTVSPost2010PropOp29
 70
     1
102
RTVSPost2010Prop30
280
     1
102
RTVSPost2010PropOp30
 70
     1
102
RTVSPost2010Prop31
280
     0
102
RTVSPost2010PropOp31
 70
     1
102
RTVSPost2010Prop32
280
     0
102
RTVSPost2010PropOp32
 70
     1
102
RTVSPost2010Prop33
280
     0
102
RTVSPost2010PropOp33
 70
     1
102
RTVSPost2010Prop34
280
     0
102
RTVSPost2010PropOp34
 70
     1
102
RTVSPost2010Prop35
280
     0
102
RTVSPost2010PropOp35
 70
     1
102
RTVSPost2010Prop36
280
     0
102
RTVSPost2010PropOp36
 70
     1
102
RTVSPost2010Prop37
 90
       50
102
RTVSPost2010PropOp37
 70
     1
102
RTVSPost2010Prop38
140
0.0
102
RTVSPost2010PropOp38
 70
     1
102
RTVSPost2010Prop39
140
1.0
102
RTVSPost2010PropOp39
 70
     1
102
RTVSPost2010Prop40
 90
        0
102
RTVSPost2010PropOp40
 70
     1
102
RTVSPost2010Prop41ColorIndex
 90
       18
102
RTVSPost2010Prop41ColorRGB
 90
        0
102
RTVSPost2010PropOp41
 70
     1
102
RTVSPost2010Prop42
 90
       50
102
RTVSPost2010PropOp42
 70
     1
102
RTVSPost2010Prop43
 90
        3
102
RTVSPost2010PropOp43
 70
     1
102
RTVSPost2010Prop44ColorIndex
 90
        5
102
RTVSPost2010Prop44ColorRGB
 90
      255
102
RTVSPost2010PropOp44
 70
     1
102
RTVSPost2010Prop45
280
     0
102
RTVSPost2010PropOp45
 70
     1
102
RTVSPost2010Prop46
 90
       50
102
RTVSPost2010PropOp46
 70
     1
102
RTVSPost2010Prop47
 90
       50
102
RTVSPost2010PropOp47
 70
     1
102
RTVSPost2010Prop48
 90
       50
102
RTVSPost2010PropOp48
 70
     1
102
RTVSPost2010Prop49
280
     0
102
RTVSPost2010PropOp49
 70
     1
102
RTVSPost2010Prop50
 90
       50
102
RTVSPost2010PropOp50
 70
     1
102
RTVSPost2010Prop51ColorIndex
 90
      256
102
RTVSPost2010Prop51ColorRGB
 90
-16777216
102
RTVSPost2010PropOp51
 70
     0
102
RTVSPost2010Prop52
140
1.0
102
RTVSPost2010PropOp52
 70
     0
102
RTVSPost2010Prop53
 90
        2
102
RTVSPost2010PropOp53
 70
     1
102
RTVSPost2010Prop54
  1
strokes_ogs.tif
102
RTVSPost2010PropOp54
 70
     1
102
RTVSPost2010Prop55
280
     0
102
RTVSPost2010PropOp55
 70
     1
102
RTVSPost2010Prop56
140
1.0
102
RTVSPost2010PropOp56
 70
     1
102
RTVSPost2010Prop57
140
1.0
102
RTVSPost2010PropOp57
 70
     1
  0
XRECORD
  5
2A1
102
{ACAD_REACTORS
330
2A0
102
}
330
2A0
100
AcDbXrecord
280
     1
102
RTVSPropertyOp0
 70
     1
102
RTVSPropertyOp1
 70
     1
102
RTVSPropertyOp2
 70
     1
102
RTVSPropertyOp3
 70
     1
102
RTVSPropertyOp4
 70
     1
102
RTVSPropertyOp5
 70
     1
102
RTVSPropertyOp6
 70
     1
102
RTVSPropertyOp7
 70
     1
102
RTVSPropertyOp8
 70
     1
102
RTVSPropertyOp9
 70
     1
102
RTVSPropertyOp10
 70
     1
102
RTVSPropertyOp11
 70
     1
102
RTVSPropertyOp12
 70
     1
102
RTVSPropertyOp13
 70
     1
102
RTVSPropertyOp14
 70
     1
102
RTVSPropertyOp15
 70
     1
102
RTVSPropertyOp16
 70
     1
102
RTVSPropertyOp17
 70
     1
102
RTVSPropertyOp18
 70
     1
102
RTVSPropertyOp19
 70
     1
102
RTVSPropertyOp20
 70
     1
102
RTVSPropertyOp21
 70
     1
102
RTVSPropertyOp22
 70
     1
102
RTVSPropertyOp23
 70
     1
102
RTVSPropertyOp24
 70
     1
102
RTVSPropertyOp25
 70
     1
102
RTVSPropertyOp26
 70
     1
102
RTVSPropertyOp27
 70
     1
102
RTVSPropertyOp28
 70
     1
102
RTVSPropertyOp29
 70
     1
102
RTVSPropertyOp30
 70
     1
102
RTVSPropertyOp31
 70
     1
102
RTVSPropertyOp32
 70
     1
102
RTVSPropertyOp33
 70
     1
102
RTVSPropertyOp34
 70
     1
102
RTVSPropertyOp35
 70
     1
102
RTVSPropertyOp36
 70
     1
102
RTVSPropertyOp37
 70
     1
102
RTVSPropertyOp38
 70
     1
102
RTVSPropertyOp39
 70
     1
102
RTVSPropertyOp40
 70
     1
102
RTVSPropertyOp41
 70
     1
102
RTVSPropertyOp42
 70
     1
102
RTVSPropertyOp43
 70
     1
102
RTVSPropertyOp44
 70
     1
102
RTVSPropertyOp45
 70
     1
102
RTVSPropertyOp46
 70
     1
102
RTVSPropertyOp47
 70
     1
102
RTVSPropertyOp48
 70
     1
102
RTVSPropertyOp49
 70
     1
102
RTVSPropertyOp50
 70
     1
102
RTVSPropertyOp51
 70
     0
102
RTVSPropertyOp52
 70
     0
102
RTVSPropertyOp53
 70
     1
102
RTVSPropertyOp54
 70
     1
102
RTVSPropertyOp55
 70
     1
102
RTVSPropertyOp56
 70
     1
102
RTVSPropertyOp57
 70
     1
102
RTVSPost2010Prop28
280
     0
102
RTVSPost2010PropOp28
 70
     1
102
RTVSPost2010Prop29
280
     1
102
RTVSPost2010PropOp29
 70
     1
102
RTVSPost2010Prop30
280
     1
102
RTVSPost2010PropOp30
 70
     1
102
RTVSPost2010Prop31
280
     0
102
RTVSPost2010PropOp31
 70
     1
102
RTVSPost2010Prop32
280
     0
102
RTVSPost2010PropOp32
 70
     1
102
RTVSPost2010Prop33
280
     0
102
RTVSPost2010PropOp33
 70
     1
102
RTVSPost2010Prop34
280
     0
102
RTVSPost2010PropOp34
 70
     1
102
RTVSPost2010Prop35
280
     0
102
RTVSPost2010PropOp35
 70
     1
102
RTVSPost2010Prop36
280
     0
102
RTVSPost2010PropOp36
 70
     1
102
RTVSPost2010Prop37
 90
       50
102
RTVSPost2010PropOp37
 70
     1
102
RTVSPost2010Prop38
140
0.0
102
RTVSPost2010PropOp38
 70
     1
102
RTVSPost2010Prop39
140
1.0
102
RTVSPost2010PropOp39
 70
     1
102
RTVSPost2010Prop40
 90
        0
102
RTVSPost2010PropOp40
 70
     1
102
RTVSPost2010Prop41ColorIndex
 90
       18
102
RTVSPost2010Prop41ColorRGB
 90
        0
102
RTVSPost2010PropOp41
 70
     1
102
RTVSPost2010Prop42
 90
       50
102
RTVSPost2010PropOp42
 70
     1
102
RTVSPost2010Prop43
 90
        3
102
RTVSPost2010PropOp43
 70
     1
102
RTVSPost2010Prop44ColorIndex
 90
        5
102
RTVSPost2010Prop44ColorRGB
 90
      255
102
RTVSPost2010PropOp44
 70
     1
102
RTVSPost2010Prop45
280
     0
102
RTVSPost2010PropOp45
 70
     1
102
RTVSPost2010Prop46
 90
       50
102
RTVSPost2010PropOp46
 70
     1
102
RTVSPost2010Prop47
 90
       50
102
RTVSPost2010PropOp47
 70
     1
102
RTVSPost2010Prop48
 90
       50
102
RTVSPost2010PropOp48
 70
     1
102
RTVSPost2010Prop49
280
     0
102
RTVSPost2010PropOp49
 70
     1
102
RTVSPost2010Prop50
 90
       50
102
RTVSPost2010PropOp50
 70
     1
102
RTVSPost2010Prop51ColorIndex
 90
      256
102
RTVSPost2010Prop51ColorRGB
 90
-16777216
102
RTVSPost2010PropOp51
 70
     0
102
RTVSPost2010Prop52
140
1.0
102
RTVSPost2010PropOp52
 70
     0
102
RTVSPost2010Prop53
 90
        2
102
RTVSPost2010PropOp53
 70
     1
102
RTVSPost2010Prop54
  1
strokes_ogs.tif
102
RTVSPost2010PropOp54
 70
     1
102
RTVSPost2010Prop55
280
     0
102
RTVSPost2010PropOp55
 70
     1
102
RTVSPost2010Prop56
140
1.0
102
RTVSPost2010PropOp56
 70
     1
102
RTVSPost2010Prop57
140
1.0
102
RTVSPost2010PropOp57
 70
     1
  0
XRECORD
  5
2A3
102
{ACAD_REACTORS
330
2A2
102
}
330
2A2
100
AcDbXrecord
280
     1
102
RTVSPropertyOp0
 70
     1
102
RTVSPropertyOp1
 70
     1
102
RTVSPropertyOp2
 70
     1
102
RTVSPropertyOp3
 70
     1
102
RTVSPropertyOp4
 70
     1
102
RTVSPropertyOp5
 70
     1
102
RTVSPropertyOp6
 70
     1
102
RTVSPropertyOp7
 70
     1
102
RTVSPropertyOp8
 70
     1
102
RTVSPropertyOp9
 70
     1
102
RTVSPropertyOp10
 70
     1
102
RTVSPropertyOp11
 70
     1
102
RTVSPropertyOp12
 70
     1
102
RTVSPropertyOp13
 70
     1
102
RTVSPropertyOp14
 70
     1
102
RTVSPropertyOp15
 70
     1
102
RTVSPropertyOp16
 70
     1
102
RTVSPropertyOp17
 70
     1
102
RTVSPropertyOp18
 70
     1
102
RTVSPropertyOp19
 70
     1
102
RTVSPropertyOp20
 70
     1
102
RTVSPropertyOp21
 70
     1
102
RTVSPropertyOp22
 70
     1
102
RTVSPropertyOp23
 70
     1
102
RTVSPropertyOp24
 70
     1
102
RTVSPropertyOp25
 70
     1
102
RTVSPropertyOp26
 70
     1
102
RTVSPropertyOp27
 70
     1
102
RTVSPropertyOp28
 70
     1
102
RTVSPropertyOp29
 70
     1
102
RTVSPropertyOp30
 70
     1
102
RTVSPropertyOp31
 70
     1
102
RTVSPropertyOp32
 70
     1
102
RTVSPropertyOp33
 70
     1
102
RTVSPropertyOp34
 70
     1
102
RTVSPropertyOp35
 70
     1
102
RTVSPropertyOp36
 70
     1
102
RTVSPropertyOp37
 70
     1
102
RTVSPropertyOp38
 70
     1
102
RTVSPropertyOp39
 70
     1
102
RTVSPropertyOp40
 70
     1
102
RTVSPropertyOp41
 70
     1
102
RTVSPropertyOp42
 70
     1
102
RTVSPropertyOp43
 70
     1
102
RTVSPropertyOp44
 70
     1
102
RTVSPropertyOp45
 70
     1
102
RTVSPropertyOp46
 70
     1
102
RTVSPropertyOp47
 70
     1
102
RTVSPropertyOp48
 70
     1
102
RTVSPropertyOp49
 70
     1
102
RTVSPropertyOp50
 70
     1
102
RTVSPropertyOp51
 70
     0
102
RTVSPropertyOp52
 70
     0
102
RTVSPropertyOp53
 70
     1
102
RTVSPropertyOp54
 70
     1
102
RTVSPropertyOp55
 70
     1
102
RTVSPropertyOp56
 70
     1
102
RTVSPropertyOp57
 70
     1
102
RTVSPost2010Prop28
280
     0
102
RTVSPost2010PropOp28
 70
     1
102
RTVSPost2010Prop29
280
     1
102
RTVSPost2010PropOp29
 70
     1
102
RTVSPost2010Prop30
280
     1
102
RTVSPost2010PropOp30
 70
     1
102
RTVSPost2010Prop31
280
     0
102
RTVSPost2010PropOp31
 70
     1
102
RTVSPost2010Prop32
280
     0
102
RTVSPost2010PropOp32
 70
     1
102
RTVSPost2010Prop33
280
     0
102
RTVSPost2010PropOp33
 70
     1
102
RTVSPost2010Prop34
280
     0
102
RTVSPost2010PropOp34
 70
     1
102
RTVSPost2010Prop35
280
     0
102
RTVSPost2010PropOp35
 70
     1
102
RTVSPost2010Prop36
280
     0
102
RTVSPost2010PropOp36
 70
     1
102
RTVSPost2010Prop37
 90
       50
102
RTVSPost2010PropOp37
 70
     1
102
RTVSPost2010Prop38
140
0.0
102
RTVSPost2010PropOp38
 70
     1
102
RTVSPost2010Prop39
140
1.0
102
RTVSPost2010PropOp39
 70
     1
102
RTVSPost2010Prop40
 90
        0
102
RTVSPost2010PropOp40
 70
     1
102
RTVSPost2010Prop41ColorIndex
 90
       18
102
RTVSPost2010Prop41ColorRGB
 90
        0
102
RTVSPost2010PropOp41
 70
     1
102
RTVSPost2010Prop42
 90
       50
102
RTVSPost2010PropOp42
 70
     1
102
RTVSPost2010Prop43
 90
        3
102
RTVSPost2010PropOp43
 70
     1
102
RTVSPost2010Prop44ColorIndex
 90
        5
102
RTVSPost2010Prop44ColorRGB
 90
      255
102
RTVSPost2010PropOp44
 70
     1
102
RTVSPost2010Prop45
280
     0
102
RTVSPost2010PropOp45
 70
     1
102
RTVSPost2010Prop46
 90
       50
102
RTVSPost2010PropOp46
 70
     1
102
RTVSPost2010Prop47
 90
       50
102
RTVSPost2010PropOp47
 70
     1
102
RTVSPost2010Prop48
 90
       50
102
RTVSPost2010PropOp48
 70
     1
102
RTVSPost2010Prop49
280
     0
102
RTVSPost2010PropOp49
 70
     1
102
RTVSPost2010Prop50
 90
       50
102
RTVSPost2010PropOp50
 70
     1
102
RTVSPost2010Prop51ColorIndex
 90
      256
102
RTVSPost2010Prop51ColorRGB
 90
-16777216
102
RTVSPost2010PropOp51
 70
     0
102
RTVSPost2010Prop52
140
1.0
102
RTVSPost2010PropOp52
 70
     0
102
RTVSPost2010Prop53
 90
        2
102
RTVSPost2010PropOp53
 70
     1
102
RTVSPost2010Prop54
  1
strokes_ogs.tif
102
RTVSPost2010PropOp54
 70
     1
102
RTVSPost2010Prop55
280
     0
102
RTVSPost2010PropOp55
 70
     1
102
RTVSPost2010Prop56
140
1.0
102
RTVSPost2010PropOp56
 70
     1
102
RTVSPost2010Prop57
140
1.0
102
RTVSPost2010PropOp57
 70
     1
  0
XRECORD
  5
2A9
102
{ACAD_REACTORS
330
2A8
102
}
330
2A8
100
AcDbXrecord
280
     1
102
RTVSPropertyOp0
 70
     1
102
RTVSPropertyOp1
 70
     1
102
RTVSPropertyOp2
 70
     1
102
RTVSPropertyOp3
 70
     1
102
RTVSPropertyOp4
 70
     1
102
RTVSPropertyOp5
 70
     1
102
RTVSPropertyOp6
 70
     1
102
RTVSPropertyOp7
 70
     1
102
RTVSPropertyOp8
 70
     1
102
RTVSPropertyOp9
 70
     1
102
RTVSPropertyOp10
 70
     1
102
RTVSPropertyOp11
 70
     1
102
RTVSPropertyOp12
 70
     1
102
RTVSPropertyOp13
 70
     1
102
RTVSPropertyOp14
 70
     1
102
RTVSPropertyOp15
 70
     1
102
RTVSPropertyOp16
 70
     1
102
RTVSPropertyOp17
 70
     1
102
RTVSPropertyOp18
 70
     1
102
RTVSPropertyOp19
 70
     1
102
RTVSPropertyOp20
 70
     1
102
RTVSPropertyOp21
 70
     1
102
RTVSPropertyOp22
 70
     1
102
RTVSPropertyOp23
 70
     1
102
RTVSPropertyOp24
 70
     1
102
RTVSPropertyOp25
 70
     1
102
RTVSPropertyOp26
 70
     1
102
RTVSPropertyOp27
 70
     1
102
RTVSPropertyOp28
 70
     1
102
RTVSPropertyOp29
 70
     1
102
RTVSPropertyOp30
 70
     1
102
RTVSPropertyOp31
 70
     1
102
RTVSPropertyOp32
 70
     1
102
RTVSPropertyOp33
 70
     1
102
RTVSPropertyOp34
 70
     1
102
RTVSPropertyOp35
 70
     1
102
RTVSPropertyOp36
 70
     1
102
RTVSPropertyOp37
 70
     1
102
RTVSPropertyOp38
 70
     1
102
RTVSPropertyOp39
 70
     1
102
RTVSPropertyOp40
 70
     1
102
RTVSPropertyOp41
 70
     1
102
RTVSPropertyOp42
 70
     1
102
RTVSPropertyOp43
 70
     1
102
RTVSPropertyOp44
 70
     1
102
RTVSPropertyOp45
 70
     1
102
RTVSPropertyOp46
 70
     1
102
RTVSPropertyOp47
 70
     1
102
RTVSPropertyOp48
 70
     1
102
RTVSPropertyOp49
 70
     1
102
RTVSPropertyOp50
 70
     1
102
RTVSPropertyOp51
 70
     0
102
RTVSPropertyOp52
 70
     0
102
RTVSPropertyOp53
 70
     1
102
RTVSPropertyOp54
 70
     1
102
RTVSPropertyOp55
 70
     1
102
RTVSPropertyOp56
 70
     1
102
RTVSPropertyOp57
 70
     1
102
RTVSPost2010Prop28
280
     0
102
RTVSPost2010PropOp28
 70
     1
102
RTVSPost2010Prop29
280
     1
102
RTVSPost2010PropOp29
 70
     1
102
RTVSPost2010Prop30
280
     1
102
RTVSPost2010PropOp30
 70
     1
102
RTVSPost2010Prop31
280
     0
102
RTVSPost2010PropOp31
 70
     1
102
RTVSPost2010Prop32
280
     0
102
RTVSPost2010PropOp32
 70
     1
102
RTVSPost2010Prop33
280
     0
102
RTVSPost2010PropOp33
 70
     1
102
RTVSPost2010Prop34
280
     0
102
RTVSPost2010PropOp34
 70
     1
102
RTVSPost2010Prop35
280
     0
102
RTVSPost2010PropOp35
 70
     1
102
RTVSPost2010Prop36
280
     0
102
RTVSPost2010PropOp36
 70
     1
102
RTVSPost2010Prop37
 90
       50
102
RTVSPost2010PropOp37
 70
     1
102
RTVSPost2010Prop38
140
0.0
102
RTVSPost2010PropOp38
 70
     1
102
RTVSPost2010Prop39
140
1.0
102
RTVSPost2010PropOp39
 70
     1
102
RTVSPost2010Prop40
 90
        0
102
RTVSPost2010PropOp40
 70
     1
102
RTVSPost2010Prop41ColorIndex
 90
       18
102
RTVSPost2010Prop41ColorRGB
 90
        0
102
RTVSPost2010PropOp41
 70
     1
102
RTVSPost2010Prop42
 90
       50
102
RTVSPost2010PropOp42
 70
     1
102
RTVSPost2010Prop43
 90
        3
102
RTVSPost2010PropOp43
 70
     1
102
RTVSPost2010Prop44ColorIndex
 90
        5
102
RTVSPost2010Prop44ColorRGB
 90
      255
102
RTVSPost2010PropOp44
 70
     1
102
RTVSPost2010Prop45
280
     0
102
RTVSPost2010PropOp45
 70
     1
102
RTVSPost2010Prop46
 90
       50
102
RTVSPost2010PropOp46
 70
     1
102
RTVSPost2010Prop47
 90
       50
102
RTVSPost2010PropOp47
 70
     1
102
RTVSPost2010Prop48
 90
       50
102
RTVSPost2010PropOp48
 70
     1
102
RTVSPost2010Prop49
280
     0
102
RTVSPost2010PropOp49
 70
     1
102
RTVSPost2010Prop50
 90
       50
102
RTVSPost2010PropOp50
 70
     1
102
RTVSPost2010Prop51ColorIndex
 90
      256
102
RTVSPost2010Prop51ColorRGB
 90
-16777216
102
RTVSPost2010PropOp51
 70
     0
102
RTVSPost2010Prop52
140
1.0
102
RTVSPost2010PropOp52
 70
     0
102
RTVSPost2010Prop53
 90
        2
102
RTVSPost2010PropOp53
 70
     1
102
RTVSPost2010Prop54
  1
strokes_ogs.tif
102
RTVSPost2010PropOp54
 70
     1
102
RTVSPost2010Prop55
280
     0
102
RTVSPost2010PropOp55
 70
     1
102
RTVSPost2010Prop56
140
1.0
102
RTVSPost2010PropOp56
 70
     1
102
RTVSPost2010Prop57
140
1.0
102
RTVSPost2010PropOp57
 70
     1
  0
XRECORD
  5
2BD
102
{ACAD_REACTORS
330
2BC
102
}
330
2BC
100
AcDbXrecord
280
     1
102
RTVSPropertyOp0
 70
     0
102
RTVSPropertyOp1
 70
     0
102
RTVSPropertyOp2
 70
     0
102
RTVSPropertyOp3
 70
     0
102
RTVSPropertyOp4
 70
     0
102
RTVSPropertyOp5
 70
     0
102
RTVSPropertyOp6
 70
     0
102
RTVSPropertyOp7
 70
     0
102
RTVSPropertyOp8
 70
     0
102
RTVSPropertyOp9
 70
     0
102
RTVSPropertyOp10
 70
     0
102
RTVSPropertyOp11
 70
     0
102
RTVSPropertyOp12
 70
     0
102
RTVSPropertyOp13
 70
     0
102
RTVSPropertyOp14
 70
     0
102
RTVSPropertyOp15
 70
     0
102
RTVSPropertyOp16
 70
     0
102
RTVSPropertyOp17
 70
     0
102
RTVSPropertyOp18
 70
     0
102
RTVSPropertyOp19
 70
     0
102
RTVSPropertyOp20
 70
     0
102
RTVSPropertyOp21
 70
     0
102
RTVSPropertyOp22
 70
     0
102
RTVSPropertyOp23
 70
     0
102
RTVSPropertyOp24
 70
     0
102
RTVSPropertyOp25
 70
     0
102
RTVSPropertyOp26
 70
     0
102
RTVSPropertyOp27
 70
     0
102
RTVSPropertyOp28
 70
     1
102
RTVSPropertyOp29
 70
     1
102
RTVSPropertyOp30
 70
     1
102
RTVSPropertyOp31
 70
     1
102
RTVSPropertyOp32
 70
     1
102
RTVSPropertyOp33
 70
     1
102
RTVSPropertyOp34
 70
     1
102
RTVSPropertyOp35
 70
     1
102
RTVSPropertyOp36
 70
     1
102
RTVSPropertyOp37
 70
     1
102
RTVSPropertyOp38
 70
     1
102
RTVSPropertyOp39
 70
     1
102
RTVSPropertyOp40
 70
     1
102
RTVSPropertyOp41
 70
     1
102
RTVSPropertyOp42
 70
     1
102
RTVSPropertyOp43
 70
     1
102
RTVSPropertyOp44
 70
     1
102
RTVSPropertyOp45
 70
     1
102
RTVSPropertyOp46
 70
     1
102
RTVSPropertyOp47
 70
     1
102
RTVSPropertyOp48
 70
     1
102
RTVSPropertyOp49
 70
     1
102
RTVSPropertyOp50
 70
     1
102
RTVSPropertyOp51
 70
     0
102
RTVSPropertyOp52
 70
     0
102
RTVSPropertyOp53
 70
     1
102
RTVSPropertyOp54
 70
     1
102
RTVSPropertyOp55
 70
     1
102
RTVSPropertyOp56
 70
     1
102
RTVSPropertyOp57
 70
     1
102
RTVSPost2010Prop28
280
     0
102
RTVSPost2010PropOp28
 70
     1
102
RTVSPost2010Prop29
280
     1
102
RTVSPost2010PropOp29
 70
     1
102
RTVSPost2010Prop30
280
     1
102
RTVSPost2010PropOp30
 70
     1
102
RTVSPost2010Prop31
280
     0
102
RTVSPost2010PropOp31
 70
     1
102
RTVSPost2010Prop32
280
     0
102
RTVSPost2010PropOp32
 70
     1
102
RTVSPost2010Prop33
280
     0
102
RTVSPost2010PropOp33
 70
     1
102
RTVSPost2010Prop34
280
     0
102
RTVSPost2010PropOp34
 70
     1
102
RTVSPost2010Prop35
280
     0
102
RTVSPost2010PropOp35
 70
     1
102
RTVSPost2010Prop36
280
     0
102
RTVSPost2010PropOp36
 70
     1
102
RTVSPost2010Prop37
 90
       50
102
RTVSPost2010PropOp37
 70
     1
102
RTVSPost2010Prop38
140
0.0
102
RTVSPost2010PropOp38
 70
     1
102
RTVSPost2010Prop39
140
1.0
102
RTVSPost2010PropOp39
 70
     1
102
RTVSPost2010Prop40
 90
        0
102
RTVSPost2010PropOp40
 70
     1
102
RTVSPost2010Prop41ColorIndex
 90
       18
102
RTVSPost2010Prop41ColorRGB
 90
        0
102
RTVSPost2010PropOp41
 70
     1
102
RTVSPost2010Prop42
 90
       50
102
RTVSPost2010PropOp42
 70
     1
102
RTVSPost2010Prop43
 90
        3
102
RTVSPost2010PropOp43
 70
     1
102
RTVSPost2010Prop44ColorIndex
 90
        5
102
RTVSPost2010Prop44ColorRGB
 90
      255
102
RTVSPost2010PropOp44
 70
     1
102
RTVSPost2010Prop45
280
     0
102
RTVSPost2010PropOp45
 70
     1
102
RTVSPost2010Prop46
 90
       50
102
RTVSPost2010PropOp46
 70
     1
102
RTVSPost2010Prop47
 90
       50
102
RTVSPost2010PropOp47
 70
     1
102
RTVSPost2010Prop48
 90
       50
102
RTVSPost2010PropOp48
 70
     1
102
RTVSPost2010Prop49
280
     0
102
RTVSPost2010PropOp49
 70
     1
102
RTVSPost2010Prop50
 90
       50
102
RTVSPost2010PropOp50
 70
     1
102
RTVSPost2010Prop51ColorIndex
 90
      256
102
RTVSPost2010Prop51ColorRGB
 90
-16777216
102
RTVSPost2010PropOp51
 70
     0
102
RTVSPost2010Prop52
140
1.0
102
RTVSPost2010PropOp52
 70
     0
102
RTVSPost2010Prop53
 90
        2
102
RTVSPost2010PropOp53
 70
     1
102
RTVSPost2010Prop54
  1
strokes_ogs.tif
102
RTVSPost2010PropOp54
 70
     1
102
RTVSPost2010Prop55
280
     0
102
RTVSPost2010PropOp55
 70
     1
102
RTVSPost2010Prop56
140
1.0
102
RTVSPost2010PropOp56
 70
     1
102
RTVSPost2010Prop57
140
1.0
102
RTVSPost2010PropOp57
 70
     1
  0
XRECORD
  5
2B7
102
{ACAD_REACTORS
330
2B6
102
}
330
2B6
100
AcDbXrecord
280
     1
102
RTVSPropertyOp0
 70
     1
102
RTVSPropertyOp1
 70
     1
102
RTVSPropertyOp2
 70
     1
102
RTVSPropertyOp3
 70
     1
102
RTVSPropertyOp4
 70
     1
102
RTVSPropertyOp5
 70
     1
102
RTVSPropertyOp6
 70
     1
102
RTVSPropertyOp7
 70
     1
102
RTVSPropertyOp8
 70
     1
102
RTVSPropertyOp9
 70
     1
102
RTVSPropertyOp10
 70
     1
102
RTVSPropertyOp11
 70
     1
102
RTVSPropertyOp12
 70
     1
102
RTVSPropertyOp13
 70
     1
102
RTVSPropertyOp14
 70
     1
102
RTVSPropertyOp15
 70
     1
102
RTVSPropertyOp16
 70
     1
102
RTVSPropertyOp17
 70
     1
102
RTVSPropertyOp18
 70
     1
102
RTVSPropertyOp19
 70
     1
102
RTVSPropertyOp20
 70
     1
102
RTVSPropertyOp21
 70
     1
102
RTVSPropertyOp22
 70
     1
102
RTVSPropertyOp23
 70
     1
102
RTVSPropertyOp24
 70
     1
102
RTVSPropertyOp25
 70
     1
102
RTVSPropertyOp26
 70
     1
102
RTVSPropertyOp27
 70
     1
102
RTVSPropertyOp28
 70
     1
102
RTVSPropertyOp29
 70
     1
102
RTVSPropertyOp30
 70
     1
102
RTVSPropertyOp31
 70
     1
102
RTVSPropertyOp32
 70
     1
102
RTVSPropertyOp33
 70
     1
102
RTVSPropertyOp34
 70
     1
102
RTVSPropertyOp35
 70
     1
102
RTVSPropertyOp36
 70
     1
102
RTVSPropertyOp37
 70
     1
102
RTVSPropertyOp38
 70
     1
102
RTVSPropertyOp39
 70
     1
102
RTVSPropertyOp40
 70
     1
102
RTVSPropertyOp41
 70
     1
102
RTVSPropertyOp42
 70
     1
102
RTVSPropertyOp43
 70
     1
102
RTVSPropertyOp44
 70
     1
102
RTVSPropertyOp45
 70
     1
102
RTVSPropertyOp46
 70
     1
102
RTVSPropertyOp47
 70
     1
102
RTVSPropertyOp48
 70
     1
102
RTVSPropertyOp49
 70
     1
102
RTVSPropertyOp50
 70
     1
102
RTVSPropertyOp51
 70
     0
102
RTVSPropertyOp52
 70
     0
102
RTVSPropertyOp53
 70
     1
102
RTVSPropertyOp54
 70
     1
102
RTVSPropertyOp55
 70
     1
102
RTVSPropertyOp56
 70
     1
102
RTVSPropertyOp57
 70
     1
102
RTVSPost2010Prop28
280
     0
102
RTVSPost2010PropOp28
 70
     1
102
RTVSPost2010Prop29
280
     1
102
RTVSPost2010PropOp29
 70
     1
102
RTVSPost2010Prop30
280
     1
102
RTVSPost2010PropOp30
 70
     1
102
RTVSPost2010Prop31
280
     0
102
RTVSPost2010PropOp31
 70
     1
102
RTVSPost2010Prop32
280
     0
102
RTVSPost2010PropOp32
 70
     1
102
RTVSPost2010Prop33
280
     0
102
RTVSPost2010PropOp33
 70
     1
102
RTVSPost2010Prop34
280
     0
102
RTVSPost2010PropOp34
 70
     1
102
RTVSPost2010Prop35
280
     0
102
RTVSPost2010PropOp35
 70
     1
102
RTVSPost2010Prop36
280
     0
102
RTVSPost2010PropOp36
 70
     1
102
RTVSPost2010Prop37
 90
       50
102
RTVSPost2010PropOp37
 70
     1
102
RTVSPost2010Prop38
140
0.0
102
RTVSPost2010PropOp38
 70
     1
102
RTVSPost2010Prop39
140
1.0
102
RTVSPost2010PropOp39
 70
     1
102
RTVSPost2010Prop40
 90
        0
102
RTVSPost2010PropOp40
 70
     1
102
RTVSPost2010Prop41ColorIndex
 90
       18
102
RTVSPost2010Prop41ColorRGB
 90
        0
102
RTVSPost2010PropOp41
 70
     1
102
RTVSPost2010Prop42
 90
       50
102
RTVSPost2010PropOp42
 70
     1
102
RTVSPost2010Prop43
 90
        3
102
RTVSPost2010PropOp43
 70
     1
102
RTVSPost2010Prop44ColorIndex
 90
        5
102
RTVSPost2010Prop44ColorRGB
 90
      255
102
RTVSPost2010PropOp44
 70
     1
102
RTVSPost2010Prop45
280
     0
102
RTVSPost2010PropOp45
 70
     1
102
RTVSPost2010Prop46
 90
       50
102
RTVSPost2010PropOp46
 70
     1
102
RTVSPost2010Prop47
 90
       50
102
RTVSPost2010PropOp47
 70
     1
102
RTVSPost2010Prop48
 90
       50
102
RTVSPost2010PropOp48
 70
     1
102
RTVSPost2010Prop49
280
     0
102
RTVSPost2010PropOp49
 70
     1
102
RTVSPost2010Prop50
 90
       50
102
RTVSPost2010PropOp50
 70
     1
102
RTVSPost2010Prop51ColorIndex
 90
      256
102
RTVSPost2010Prop51ColorRGB
 90
-16777216
102
RTVSPost2010PropOp51
 70
     0
102
RTVSPost2010Prop52
140
1.0
102
RTVSPost2010PropOp52
 70
     0
102
RTVSPost2010Prop53
 90
        2
102
RTVSPost2010PropOp53
 70
     1
102
RTVSPost2010Prop54
  1
strokes_ogs.tif
102
RTVSPost2010PropOp54
 70
     1
102
RTVSPost2010Prop55
280
     0
102
RTVSPost2010PropOp55
 70
     1
102
RTVSPost2010Prop56
140
1.0
102
RTVSPost2010PropOp56
 70
     1
102
RTVSPost2010Prop57
140
1.0
102
RTVSPost2010PropOp57
 70
     1
  0
XRECORD
  5
2BF
102
{ACAD_REACTORS
330
2BE
102
}
330
2BE
100
AcDbXrecord
280
     1
102
RTVSPropertyOp0
 70
     0
102
RTVSPropertyOp1
 70
     0
102
RTVSPropertyOp2
 70
     0
102
RTVSPropertyOp3
 70
     0
102
RTVSPropertyOp4
 70
     0
102
RTVSPropertyOp5
 70
     0
102
RTVSPropertyOp6
 70
     0
102
RTVSPropertyOp7
 70
     0
102
RTVSPropertyOp8
 70
     0
102
RTVSPropertyOp9
 70
     0
102
RTVSPropertyOp10
 70
     0
102
RTVSPropertyOp11
 70
     0
102
RTVSPropertyOp12
 70
     0
102
RTVSPropertyOp13
 70
     0
102
RTVSPropertyOp14
 70
     0
102
RTVSPropertyOp15
 70
     0
102
RTVSPropertyOp16
 70
     0
102
RTVSPropertyOp17
 70
     0
102
RTVSPropertyOp18
 70
     0
102
RTVSPropertyOp19
 70
     0
102
RTVSPropertyOp20
 70
     0
102
RTVSPropertyOp21
 70
     0
102
RTVSPropertyOp22
 70
     0
102
RTVSPropertyOp23
 70
     0
102
RTVSPropertyOp24
 70
     0
102
RTVSPropertyOp25
 70
     0
102
RTVSPropertyOp26
 70
     0
102
RTVSPropertyOp27
 70
     0
102
RTVSPropertyOp28
 70
     1
102
RTVSPropertyOp29
 70
     1
102
RTVSPropertyOp30
 70
     1
102
RTVSPropertyOp31
 70
     1
102
RTVSPropertyOp32
 70
     1
102
RTVSPropertyOp33
 70
     1
102
RTVSPropertyOp34
 70
     1
102
RTVSPropertyOp35
 70
     1
102
RTVSPropertyOp36
 70
     1
102
RTVSPropertyOp37
 70
     1
102
RTVSPropertyOp38
 70
     1
102
RTVSPropertyOp39
 70
     1
102
RTVSPropertyOp40
 70
     1
102
RTVSPropertyOp41
 70
     1
102
RTVSPropertyOp42
 70
     1
102
RTVSPropertyOp43
 70
     1
102
RTVSPropertyOp44
 70
     1
102
RTVSPropertyOp45
 70
     1
102
RTVSPropertyOp46
 70
     1
102
RTVSPropertyOp47
 70
     1
102
RTVSPropertyOp48
 70
     1
102
RTVSPropertyOp49
 70
     1
102
RTVSPropertyOp50
 70
     1
102
RTVSPropertyOp51
 70
     0
102
RTVSPropertyOp52
 70
     0
102
RTVSPropertyOp53
 70
     1
102
RTVSPropertyOp54
 70
     1
102
RTVSPropertyOp55
 70
     1
102
RTVSPropertyOp56
 70
     1
102
RTVSPropertyOp57
 70
     1
102
RTVSPost2010Prop28
280
     0
102
RTVSPost2010PropOp28
 70
     1
102
RTVSPost2010Prop29
280
     1
102
RTVSPost2010PropOp29
 70
     1
102
RTVSPost2010Prop30
280
     1
102
RTVSPost2010PropOp30
 70
     1
102
RTVSPost2010Prop31
280
     0
102
RTVSPost2010PropOp31
 70
     1
102
RTVSPost2010Prop32
280
     0
102
RTVSPost2010PropOp32
 70
     1
102
RTVSPost2010Prop33
280
     0
102
RTVSPost2010PropOp33
 70
     1
102
RTVSPost2010Prop34
280
     0
102
RTVSPost2010PropOp34
 70
     1
102
RTVSPost2010Prop35
280
     0
102
RTVSPost2010PropOp35
 70
     1
102
RTVSPost2010Prop36
280
     0
102
RTVSPost2010PropOp36
 70
     1
102
RTVSPost2010Prop37
 90
       50
102
RTVSPost2010PropOp37
 70
     1
102
RTVSPost2010Prop38
140
0.0
102
RTVSPost2010PropOp38
 70
     1
102
RTVSPost2010Prop39
140
1.0
102
RTVSPost2010PropOp39
 70
     1
102
RTVSPost2010Prop40
 90
        0
102
RTVSPost2010PropOp40
 70
     1
102
RTVSPost2010Prop41ColorIndex
 90
       18
102
RTVSPost2010Prop41ColorRGB
 90
        0
102
RTVSPost2010PropOp41
 70
     1
102
RTVSPost2010Prop42
 90
       50
102
RTVSPost2010PropOp42
 70
     1
102
RTVSPost2010Prop43
 90
        3
102
RTVSPost2010PropOp43
 70
     1
102
RTVSPost2010Prop44ColorIndex
 90
        5
102
RTVSPost2010Prop44ColorRGB
 90
      255
102
RTVSPost2010PropOp44
 70
     1
102
RTVSPost2010Prop45
280
     0
102
RTVSPost2010PropOp45
 70
     1
102
RTVSPost2010Prop46
 90
       50
102
RTVSPost2010PropOp46
 70
     1
102
RTVSPost2010Prop47
 90
       50
102
RTVSPost2010PropOp47
 70
     1
102
RTVSPost2010Prop48
 90
       50
102
RTVSPost2010PropOp48
 70
     1
102
RTVSPost2010Prop49
280
     0
102
RTVSPost2010PropOp49
 70
     1
102
RTVSPost2010Prop50
 90
       50
102
RTVSPost2010PropOp50
 70
     1
102
RTVSPost2010Prop51ColorIndex
 90
      256
102
RTVSPost2010Prop51ColorRGB
 90
-16777216
102
RTVSPost2010PropOp51
 70
     0
102
RTVSPost2010Prop52
140
1.0
102
RTVSPost2010PropOp52
 70
     0
102
RTVSPost2010Prop53
 90
        2
102
RTVSPost2010PropOp53
 70
     1
102
RTVSPost2010Prop54
  1
strokes_ogs.tif
102
RTVSPost2010PropOp54
 70
     1
102
RTVSPost2010Prop55
280
     0
102
RTVSPost2010PropOp55
 70
     1
102
RTVSPost2010Prop56
140
1.0
102
RTVSPost2010PropOp56
 70
     1
102
RTVSPost2010Prop57
140
1.0
102
RTVSPost2010PropOp57
 70
     1
  0
XRECORD
  5
2AD
102
{ACAD_REACTORS
330
2AC
102
}
330
2AC
100
AcDbXrecord
280
     1
102
RTVSPropertyOp0
 70
     1
102
RTVSPropertyOp1
 70
     1
102
RTVSPropertyOp2
 70
     1
102
RTVSPropertyOp3
 70
     1
102
RTVSPropertyOp4
 70
     1
102
RTVSPropertyOp5
 70
     1
102
RTVSPropertyOp6
 70
     1
102
RTVSPropertyOp7
 70
     1
102
RTVSPropertyOp8
 70
     1
102
RTVSPropertyOp9
 70
     1
102
RTVSPropertyOp10
 70
     1
102
RTVSPropertyOp11
 70
     1
102
RTVSPropertyOp12
 70
     1
102
RTVSPropertyOp13
 70
     1
102
RTVSPropertyOp14
 70
     1
102
RTVSPropertyOp15
 70
     1
102
RTVSPropertyOp16
 70
     1
102
RTVSPropertyOp17
 70
     1
102
RTVSPropertyOp18
 70
     1
102
RTVSPropertyOp19
 70
     1
102
RTVSPropertyOp20
 70
     1
102
RTVSPropertyOp21
 70
     1
102
RTVSPropertyOp22
 70
     1
102
RTVSPropertyOp23
 70
     1
102
RTVSPropertyOp24
 70
     1
102
RTVSPropertyOp25
 70
     1
102
RTVSPropertyOp26
 70
     1
102
RTVSPropertyOp27
 70
     1
102
RTVSPropertyOp28
 70
     1
102
RTVSPropertyOp29
 70
     1
102
RTVSPropertyOp30
 70
     1
102
RTVSPropertyOp31
 70
     1
102
RTVSPropertyOp32
 70
     1
102
RTVSPropertyOp33
 70
     1
102
RTVSPropertyOp34
 70
     1
102
RTVSPropertyOp35
 70
     1
102
RTVSPropertyOp36
 70
     1
102
RTVSPropertyOp37
 70
     1
102
RTVSPropertyOp38
 70
     1
102
RTVSPropertyOp39
 70
     1
102
RTVSPropertyOp40
 70
     1
102
RTVSPropertyOp41
 70
     1
102
RTVSPropertyOp42
 70
     1
102
RTVSPropertyOp43
 70
     1
102
RTVSPropertyOp44
 70
     1
102
RTVSPropertyOp45
 70
     1
102
RTVSPropertyOp46
 70
     1
102
RTVSPropertyOp47
 70
     1
102
RTVSPropertyOp48
 70
     1
102
RTVSPropertyOp49
 70
     1
102
RTVSPropertyOp50
 70
     1
102
RTVSPropertyOp51
 70
     0
102
RTVSPropertyOp52
 70
     0
102
RTVSPropertyOp53
 70
     1
102
RTVSPropertyOp54
 70
     1
102
RTVSPropertyOp55
 70
     1
102
RTVSPropertyOp56
 70
     1
102
RTVSPropertyOp57
 70
     1
102
RTVSPost2010Prop28
280
     0
102
RTVSPost2010PropOp28
 70
     1
102
RTVSPost2010Prop29
280
     1
102
RTVSPost2010PropOp29
 70
     1
102
RTVSPost2010Prop30
280
     1
102
RTVSPost2010PropOp30
 70
     1
102
RTVSPost2010Prop31
280
     0
102
RTVSPost2010PropOp31
 70
     1
102
RTVSPost2010Prop32
280
     0
102
RTVSPost2010PropOp32
 70
     1
102
RTVSPost2010Prop33
280
     0
102
RTVSPost2010PropOp33
 70
     1
102
RTVSPost2010Prop34
280
     0
102
RTVSPost2010PropOp34
 70
     1
102
RTVSPost2010Prop35
280
     0
102
RTVSPost2010PropOp35
 70
     1
102
RTVSPost2010Prop36
280
     0
102
RTVSPost2010PropOp36
 70
     1
102
RTVSPost2010Prop37
 90
       50
102
RTVSPost2010PropOp37
 70
     1
102
RTVSPost2010Prop38
140
0.0
102
RTVSPost2010PropOp38
 70
     1
102
RTVSPost2010Prop39
140
1.0
102
RTVSPost2010PropOp39
 70
     1
102
RTVSPost2010Prop40
 90
        0
102
RTVSPost2010PropOp40
 70
     1
102
RTVSPost2010Prop41ColorIndex
 90
       18
102
RTVSPost2010Prop41ColorRGB
 90
        0
102
RTVSPost2010PropOp41
 70
     1
102
RTVSPost2010Prop42
 90
       50
102
RTVSPost2010PropOp42
 70
     1
102
RTVSPost2010Prop43
 90
        3
102
RTVSPost2010PropOp43
 70
     1
102
RTVSPost2010Prop44ColorIndex
 90
        5
102
RTVSPost2010Prop44ColorRGB
 90
      255
102
RTVSPost2010PropOp44
 70
     1
102
RTVSPost2010Prop45
280
     0
102
RTVSPost2010PropOp45
 70
     1
102
RTVSPost2010Prop46
 90
       50
102
RTVSPost2010PropOp46
 70
     1
102
RTVSPost2010Prop47
 90
       50
102
RTVSPost2010PropOp47
 70
     1
102
RTVSPost2010Prop48
 90
       50
102
RTVSPost2010PropOp48
 70
     1
102
RTVSPost2010Prop49
280
     0
102
RTVSPost2010PropOp49
 70
     1
102
RTVSPost2010Prop50
 90
       50
102
RTVSPost2010PropOp50
 70
     1
102
RTVSPost2010Prop51ColorIndex
 90
      256
102
RTVSPost2010Prop51ColorRGB
 90
-16777216
102
RTVSPost2010PropOp51
 70
     0
102
RTVSPost2010Prop52
140
1.0
102
RTVSPost2010PropOp52
 70
     0
102
RTVSPost2010Prop53
 90
        2
102
RTVSPost2010PropOp53
 70
     1
102
RTVSPost2010Prop54
  1
strokes_ogs.tif
102
RTVSPost2010PropOp54
 70
     1
102
RTVSPost2010Prop55
280
     0
102
RTVSPost2010PropOp55
 70
     1
102
RTVSPost2010Prop56
140
1.0
102
RTVSPost2010PropOp56
 70
     1
102
RTVSPost2010Prop57
140
1.0
102
RTVSPost2010PropOp57
 70
     1
  0
XRECORD
  5
2CB
102
{ACAD_REACTORS
330
2CA
102
}
330
2CA
100
AcDbXrecord
280
     1
102
RTVSPropertyOp0
 70
     1
102
RTVSPropertyOp1
 70
     1
102
RTVSPropertyOp2
 70
     1
102
RTVSPropertyOp3
 70
     1
102
RTVSPropertyOp4
 70
     1
102
RTVSPropertyOp5
 70
     1
102
RTVSPropertyOp6
 70
     1
102
RTVSPropertyOp7
 70
     1
102
RTVSPropertyOp8
 70
     1
102
RTVSPropertyOp9
 70
     1
102
RTVSPropertyOp10
 70
     1
102
RTVSPropertyOp11
 70
     1
102
RTVSPropertyOp12
 70
     1
102
RTVSPropertyOp13
 70
     1
102
RTVSPropertyOp14
 70
     1
102
RTVSPropertyOp15
 70
     1
102
RTVSPropertyOp16
 70
     1
102
RTVSPropertyOp17
 70
     1
102
RTVSPropertyOp18
 70
     1
102
RTVSPropertyOp19
 70
     1
102
RTVSPropertyOp20
 70
     1
102
RTVSPropertyOp21
 70
     1
102
RTVSPropertyOp22
 70
     1
102
RTVSPropertyOp23
 70
     1
102
RTVSPropertyOp24
 70
     1
102
RTVSPropertyOp25
 70
     1
102
RTVSPropertyOp26
 70
     1
102
RTVSPropertyOp27
 70
     1
102
RTVSPropertyOp28
 70
     1
102
RTVSPropertyOp29
 70
     1
102
RTVSPropertyOp30
 70
     1
102
RTVSPropertyOp31
 70
     1
102
RTVSPropertyOp32
 70
     1
102
RTVSPropertyOp33
 70
     1
102
RTVSPropertyOp34
 70
     1
102
RTVSPropertyOp35
 70
     1
102
RTVSPropertyOp36
 70
     1
102
RTVSPropertyOp37
 70
     1
102
RTVSPropertyOp38
 70
     1
102
RTVSPropertyOp39
 70
     1
102
RTVSPropertyOp40
 70
     1
102
RTVSPropertyOp41
 70
     1
102
RTVSPropertyOp42
 70
     1
102
RTVSPropertyOp43
 70
     1
102
RTVSPropertyOp44
 70
     1
102
RTVSPropertyOp45
 70
     1
102
RTVSPropertyOp46
 70
     1
102
RTVSPropertyOp47
 70
     1
102
RTVSPropertyOp48
 70
     1
102
RTVSPropertyOp49
 70
     1
102
RTVSPropertyOp50
 70
     1
102
RTVSPropertyOp51
 70
     0
102
RTVSPropertyOp52
 70
     0
102
RTVSPropertyOp53
 70
     1
102
RTVSPropertyOp54
 70
     1
102
RTVSPropertyOp55
 70
     1
102
RTVSPropertyOp56
 70
     1
102
RTVSPropertyOp57
 70
     1
102
RTVSPost2010Prop28
280
     0
102
RTVSPost2010PropOp28
 70
     1
102
RTVSPost2010Prop29
280
     1
102
RTVSPost2010PropOp29
 70
     1
102
RTVSPost2010Prop30
280
     1
102
RTVSPost2010PropOp30
 70
     1
102
RTVSPost2010Prop31
280
     0
102
RTVSPost2010PropOp31
 70
     1
102
RTVSPost2010Prop32
280
     0
102
RTVSPost2010PropOp32
 70
     1
102
RTVSPost2010Prop33
280
     0
102
RTVSPost2010PropOp33
 70
     1
102
RTVSPost2010Prop34
280
     0
102
RTVSPost2010PropOp34
 70
     1
102
RTVSPost2010Prop35
280
     0
102
RTVSPost2010PropOp35
 70
     1
102
RTVSPost2010Prop36
280
     0
102
RTVSPost2010PropOp36
 70
     1
102
RTVSPost2010Prop37
 90
       50
102
RTVSPost2010PropOp37
 70
     1
102
RTVSPost2010Prop38
140
0.0
102
RTVSPost2010PropOp38
 70
     1
102
RTVSPost2010Prop39
140
1.0
102
RTVSPost2010PropOp39
 70
     1
102
RTVSPost2010Prop40
 90
        0
102
RTVSPost2010PropOp40
 70
     1
102
RTVSPost2010Prop41ColorIndex
 90
       18
102
RTVSPost2010Prop41ColorRGB
 90
        0
102
RTVSPost2010PropOp41
 70
     1
102
RTVSPost2010Prop42
 90
       50
102
RTVSPost2010PropOp42
 70
     1
102
RTVSPost2010Prop43
 90
        3
102
RTVSPost2010PropOp43
 70
     1
102
RTVSPost2010Prop44ColorIndex
 90
        5
102
RTVSPost2010Prop44ColorRGB
 90
      255
102
RTVSPost2010PropOp44
 70
     1
102
RTVSPost2010Prop45
280
     0
102
RTVSPost2010PropOp45
 70
     1
102
RTVSPost2010Prop46
 90
       50
102
RTVSPost2010PropOp46
 70
     1
102
RTVSPost2010Prop47
 90
       50
102
RTVSPost2010PropOp47
 70
     1
102
RTVSPost2010Prop48
 90
       50
102
RTVSPost2010PropOp48
 70
     1
102
RTVSPost2010Prop49
280
     0
102
RTVSPost2010PropOp49
 70
     1
102
RTVSPost2010Prop50
 90
       50
102
RTVSPost2010PropOp50
 70
     1
102
RTVSPost2010Prop51ColorIndex
 90
      256
102
RTVSPost2010Prop51ColorRGB
 90
-16777216
102
RTVSPost2010PropOp51
 70
     0
102
RTVSPost2010Prop52
140
1.0
102
RTVSPost2010PropOp52
 70
     0
102
RTVSPost2010Prop53
 90
        2
102
RTVSPost2010PropOp53
 70
     1
102
RTVSPost2010Prop54
  1
strokes_ogs.tif
102
RTVSPost2010PropOp54
 70
     1
102
RTVSPost2010Prop55
280
     0
102
RTVSPost2010PropOp55
 70
     1
102
RTVSPost2010Prop56
140
1.0
102
RTVSPost2010PropOp56
 70
     1
102
RTVSPost2010Prop57
140
1.0
102
RTVSPost2010PropOp57
 70
     1
  0
XRECORD
  5
2C9
102
{ACAD_REACTORS
330
2C8
102
}
330
2C8
100
AcDbXrecord
280
     1
102
RTVSPropertyOp0
 70
     1
102
RTVSPropertyOp1
 70
     1
102
RTVSPropertyOp2
 70
     1
102
RTVSPropertyOp3
 70
     1
102
RTVSPropertyOp4
 70
     1
102
RTVSPropertyOp5
 70
     1
102
RTVSPropertyOp6
 70
     1
102
RTVSPropertyOp7
 70
     1
102
RTVSPropertyOp8
 70
     1
102
RTVSPropertyOp9
 70
     1
102
RTVSPropertyOp10
 70
     1
102
RTVSPropertyOp11
 70
     1
102
RTVSPropertyOp12
 70
     1
102
RTVSPropertyOp13
 70
     1
102
RTVSPropertyOp14
 70
     1
102
RTVSPropertyOp15
 70
     1
102
RTVSPropertyOp16
 70
     1
102
RTVSPropertyOp17
 70
     1
102
RTVSPropertyOp18
 70
     1
102
RTVSPropertyOp19
 70
     1
102
RTVSPropertyOp20
 70
     1
102
RTVSPropertyOp21
 70
     1
102
RTVSPropertyOp22
 70
     1
102
RTVSPropertyOp23
 70
     1
102
RTVSPropertyOp24
 70
     1
102
RTVSPropertyOp25
 70
     1
102
RTVSPropertyOp26
 70
     1
102
RTVSPropertyOp27
 70
     1
102
RTVSPropertyOp28
 70
     1
102
RTVSPropertyOp29
 70
     1
102
RTVSPropertyOp30
 70
     1
102
RTVSPropertyOp31
 70
     1
102
RTVSPropertyOp32
 70
     1
102
RTVSPropertyOp33
 70
     1
102
RTVSPropertyOp34
 70
     1
102
RTVSPropertyOp35
 70
     1
102
RTVSPropertyOp36
 70
     1
102
RTVSPropertyOp37
 70
     1
102
RTVSPropertyOp38
 70
     1
102
RTVSPropertyOp39
 70
     1
102
RTVSPropertyOp40
 70
     1
102
RTVSPropertyOp41
 70
     1
102
RTVSPropertyOp42
 70
     1
102
RTVSPropertyOp43
 70
     1
102
RTVSPropertyOp44
 70
     1
102
RTVSPropertyOp45
 70
     1
102
RTVSPropertyOp46
 70
     1
102
RTVSPropertyOp47
 70
     1
102
RTVSPropertyOp48
 70
     1
102
RTVSPropertyOp49
 70
     1
102
RTVSPropertyOp50
 70
     1
102
RTVSPropertyOp51
 70
     0
102
RTVSPropertyOp52
 70
     0
102
RTVSPropertyOp53
 70
     1
102
RTVSPropertyOp54
 70
     1
102
RTVSPropertyOp55
 70
     1
102
RTVSPropertyOp56
 70
     1
102
RTVSPropertyOp57
 70
     1
102
RTVSPost2010Prop28
280
     0
102
RTVSPost2010PropOp28
 70
     1
102
RTVSPost2010Prop29
280
     1
102
RTVSPost2010PropOp29
 70
     1
102
RTVSPost2010Prop30
280
     1
102
RTVSPost2010PropOp30
 70
     1
102
RTVSPost2010Prop31
280
     0
102
RTVSPost2010PropOp31
 70
     1
102
RTVSPost2010Prop32
280
     0
102
RTVSPost2010PropOp32
 70
     1
102
RTVSPost2010Prop33
280
     0
102
RTVSPost2010PropOp33
 70
     1
102
RTVSPost2010Prop34
280
     0
102
RTVSPost2010PropOp34
 70
     1
102
RTVSPost2010Prop35
280
     0
102
RTVSPost2010PropOp35
 70
     1
102
RTVSPost2010Prop36
280
     0
102
RTVSPost2010PropOp36
 70
     1
102
RTVSPost2010Prop37
 90
       50
102
RTVSPost2010PropOp37
 70
     1
102
RTVSPost2010Prop38
140
0.0
102
RTVSPost2010PropOp38
 70
     1
102
RTVSPost2010Prop39
140
1.0
102
RTVSPost2010PropOp39
 70
     1
102
RTVSPost2010Prop40
 90
        0
102
RTVSPost2010PropOp40
 70
     1
102
RTVSPost2010Prop41ColorIndex
 90
       18
102
RTVSPost2010Prop41ColorRGB
 90
        0
102
RTVSPost2010PropOp41
 70
     1
102
RTVSPost2010Prop42
 90
       50
102
RTVSPost2010PropOp42
 70
     1
102
RTVSPost2010Prop43
 90
        3
102
RTVSPost2010PropOp43
 70
     1
102
RTVSPost2010Prop44ColorIndex
 90
        5
102
RTVSPost2010Prop44ColorRGB
 90
      255
102
RTVSPost2010PropOp44
 70
     1
102
RTVSPost2010Prop45
280
     0
102
RTVSPost2010PropOp45
 70
     1
102
RTVSPost2010Prop46
 90
       50
102
RTVSPost2010PropOp46
 70
     1
102
RTVSPost2010Prop47
 90
       50
102
RTVSPost2010PropOp47
 70
     1
102
RTVSPost2010Prop48
 90
       50
102
RTVSPost2010PropOp48
 70
     1
102
RTVSPost2010Prop49
280
     0
102
RTVSPost2010PropOp49
 70
     1
102
RTVSPost2010Prop50
 90
       50
102
RTVSPost2010PropOp50
 70
     1
102
RTVSPost2010Prop51ColorIndex
 90
      256
102
RTVSPost2010Prop51ColorRGB
 90
-16777216
102
RTVSPost2010PropOp51
 70
     0
102
RTVSPost2010Prop52
140
1.0
102
RTVSPost2010PropOp52
 70
     0
102
RTVSPost2010Prop53
 90
        2
102
RTVSPost2010PropOp53
 70
     1
102
RTVSPost2010Prop54
  1
strokes_ogs.tif
102
RTVSPost2010PropOp54
 70
     1
102
RTVSPost2010Prop55
280
     0
102
RTVSPost2010PropOp55
 70
     1
102
RTVSPost2010Prop56
140
1.0
102
RTVSPost2010PropOp56
 70
     1
102
RTVSPost2010Prop57
140
1.0
102
RTVSPost2010PropOp57
 70
     1
  0
XRECORD
  5
2C3
102
{ACAD_REACTORS
330
2C2
102
}
330
2C2
100
AcDbXrecord
280
     1
102
RTVSPropertyOp0
 70
     1
102
RTVSPropertyOp1
 70
     1
102
RTVSPropertyOp2
 70
     1
102
RTVSPropertyOp3
 70
     1
102
RTVSPropertyOp4
 70
     1
102
RTVSPropertyOp5
 70
     1
102
RTVSPropertyOp6
 70
     1
102
RTVSPropertyOp7
 70
     1
102
RTVSPropertyOp8
 70
     1
102
RTVSPropertyOp9
 70
     1
102
RTVSPropertyOp10
 70
     1
102
RTVSPropertyOp11
 70
     1
102
RTVSPropertyOp12
 70
     1
102
RTVSPropertyOp13
 70
     1
102
RTVSPropertyOp14
 70
     1
102
RTVSPropertyOp15
 70
     1
102
RTVSPropertyOp16
 70
     1
102
RTVSPropertyOp17
 70
     1
102
RTVSPropertyOp18
 70
     1
102
RTVSPropertyOp19
 70
     1
102
RTVSPropertyOp20
 70
     1
102
RTVSPropertyOp21
 70
     1
102
RTVSPropertyOp22
 70
     1
102
RTVSPropertyOp23
 70
     1
102
RTVSPropertyOp24
 70
     1
102
RTVSPropertyOp25
 70
     1
102
RTVSPropertyOp26
 70
     1
102
RTVSPropertyOp27
 70
     1
102
RTVSPropertyOp28
 70
     1
102
RTVSPropertyOp29
 70
     1
102
RTVSPropertyOp30
 70
     1
102
RTVSPropertyOp31
 70
     1
102
RTVSPropertyOp32
 70
     1
102
RTVSPropertyOp33
 70
     1
102
RTVSPropertyOp34
 70
     1
102
RTVSPropertyOp35
 70
     1
102
RTVSPropertyOp36
 70
     1
102
RTVSPropertyOp37
 70
     1
102
RTVSPropertyOp38
 70
     1
102
RTVSPropertyOp39
 70
     1
102
RTVSPropertyOp40
 70
     1
102
RTVSPropertyOp41
 70
     1
102
RTVSPropertyOp42
 70
     1
102
RTVSPropertyOp43
 70
     1
102
RTVSPropertyOp44
 70
     1
102
RTVSPropertyOp45
 70
     1
102
RTVSPropertyOp46
 70
     1
102
RTVSPropertyOp47
 70
     1
102
RTVSPropertyOp48
 70
     1
102
RTVSPropertyOp49
 70
     1
102
RTVSPropertyOp50
 70
     1
102
RTVSPropertyOp51
 70
     0
102
RTVSPropertyOp52
 70
     0
102
RTVSPropertyOp53
 70
     1
102
RTVSPropertyOp54
 70
     1
102
RTVSPropertyOp55
 70
     1
102
RTVSPropertyOp56
 70
     1
102
RTVSPropertyOp57
 70
     1
102
RTVSPost2010Prop28
280
     0
102
RTVSPost2010PropOp28
 70
     1
102
RTVSPost2010Prop29
280
     1
102
RTVSPost2010PropOp29
 70
     1
102
RTVSPost2010Prop30
280
     1
102
RTVSPost2010PropOp30
 70
     1
102
RTVSPost2010Prop31
280
     0
102
RTVSPost2010PropOp31
 70
     1
102
RTVSPost2010Prop32
280
     0
102
RTVSPost2010PropOp32
 70
     1
102
RTVSPost2010Prop33
280
     0
102
RTVSPost2010PropOp33
 70
     1
102
RTVSPost2010Prop34
280
     0
102
RTVSPost2010PropOp34
 70
     1
102
RTVSPost2010Prop35
280
     0
102
RTVSPost2010PropOp35
 70
     1
102
RTVSPost2010Prop36
280
     0
102
RTVSPost2010PropOp36
 70
     1
102
RTVSPost2010Prop37
 90
       50
102
RTVSPost2010PropOp37
 70
     1
102
RTVSPost2010Prop38
140
0.0
102
RTVSPost2010PropOp38
 70
     1
102
RTVSPost2010Prop39
140
1.0
102
RTVSPost2010PropOp39
 70
     1
102
RTVSPost2010Prop40
 90
        0
102
RTVSPost2010PropOp40
 70
     1
102
RTVSPost2010Prop41ColorIndex
 90
       18
102
RTVSPost2010Prop41ColorRGB
 90
        0
102
RTVSPost2010PropOp41
 70
     1
102
RTVSPost2010Prop42
 90
       50
102
RTVSPost2010PropOp42
 70
     1
102
RTVSPost2010Prop43
 90
        3
102
RTVSPost2010PropOp43
 70
     1
102
RTVSPost2010Prop44ColorIndex
 90
        5
102
RTVSPost2010Prop44ColorRGB
 90
      255
102
RTVSPost2010PropOp44
 70
     1
102
RTVSPost2010Prop45
280
     0
102
RTVSPost2010PropOp45
 70
     1
102
RTVSPost2010Prop46
 90
       50
102
RTVSPost2010PropOp46
 70
     1
102
RTVSPost2010Prop47
 90
       50
102
RTVSPost2010PropOp47
 70
     1
102
RTVSPost2010Prop48
 90
       50
102
RTVSPost2010PropOp48
 70
     1
102
RTVSPost2010Prop49
280
     0
102
RTVSPost2010PropOp49
 70
     1
102
RTVSPost2010Prop50
 90
       50
102
RTVSPost2010PropOp50
 70
     1
102
RTVSPost2010Prop51ColorIndex
 90
      256
102
RTVSPost2010Prop51ColorRGB
 90
-16777216
102
RTVSPost2010PropOp51
 70
     0
102
RTVSPost2010Prop52
140
1.0
102
RTVSPost2010PropOp52
 70
     0
102
RTVSPost2010Prop53
 90
        2
102
RTVSPost2010PropOp53
 70
     1
102
RTVSPost2010Prop54
  1
strokes_ogs.tif
102
RTVSPost2010PropOp54
 70
     1
102
RTVSPost2010Prop55
280
     0
102
RTVSPost2010PropOp55
 70
     1
102
RTVSPost2010Prop56
140
1.0
102
RTVSPost2010PropOp56
 70
     1
102
RTVSPost2010Prop57
140
1.0
102
RTVSPost2010PropOp57
 70
     1
  0
XRECORD
  5
2C5
102
{ACAD_REACTORS
330
2C4
102
}
330
2C4
100
AcDbXrecord
280
     1
102
RTVSPropertyOp0
 70
     1
102
RTVSPropertyOp1
 70
     1
102
RTVSPropertyOp2
 70
     1
102
RTVSPropertyOp3
 70
     1
102
RTVSPropertyOp4
 70
     1
102
RTVSPropertyOp5
 70
     1
102
RTVSPropertyOp6
 70
     1
102
RTVSPropertyOp7
 70
     1
102
RTVSPropertyOp8
 70
     1
102
RTVSPropertyOp9
 70
     1
102
RTVSPropertyOp10
 70
     1
102
RTVSPropertyOp11
 70
     1
102
RTVSPropertyOp12
 70
     1
102
RTVSPropertyOp13
 70
     1
102
RTVSPropertyOp14
 70
     1
102
RTVSPropertyOp15
 70
     1
102
RTVSPropertyOp16
 70
     1
102
RTVSPropertyOp17
 70
     1
102
RTVSPropertyOp18
 70
     1
102
RTVSPropertyOp19
 70
     1
102
RTVSPropertyOp20
 70
     1
102
RTVSPropertyOp21
 70
     1
102
RTVSPropertyOp22
 70
     1
102
RTVSPropertyOp23
 70
     1
102
RTVSPropertyOp24
 70
     1
102
RTVSPropertyOp25
 70
     1
102
RTVSPropertyOp26
 70
     1
102
RTVSPropertyOp27
 70
     1
102
RTVSPropertyOp28
 70
     1
102
RTVSPropertyOp29
 70
     1
102
RTVSPropertyOp30
 70
     1
102
RTVSPropertyOp31
 70
     1
102
RTVSPropertyOp32
 70
     1
102
RTVSPropertyOp33
 70
     1
102
RTVSPropertyOp34
 70
     1
102
RTVSPropertyOp35
 70
     1
102
RTVSPropertyOp36
 70
     1
102
RTVSPropertyOp37
 70
     1
102
RTVSPropertyOp38
 70
     1
102
RTVSPropertyOp39
 70
     1
102
RTVSPropertyOp40
 70
     1
102
RTVSPropertyOp41
 70
     1
102
RTVSPropertyOp42
 70
     1
102
RTVSPropertyOp43
 70
     1
102
RTVSPropertyOp44
 70
     1
102
RTVSPropertyOp45
 70
     1
102
RTVSPropertyOp46
 70
     1
102
RTVSPropertyOp47
 70
     1
102
RTVSPropertyOp48
 70
     1
102
RTVSPropertyOp49
 70
     1
102
RTVSPropertyOp50
 70
     1
102
RTVSPropertyOp51
 70
     0
102
RTVSPropertyOp52
 70
     0
102
RTVSPropertyOp53
 70
     1
102
RTVSPropertyOp54
 70
     1
102
RTVSPropertyOp55
 70
     1
102
RTVSPropertyOp56
 70
     1
102
RTVSPropertyOp57
 70
     1
102
RTVSPost2010Prop28
280
     0
102
RTVSPost2010PropOp28
 70
     1
102
RTVSPost2010Prop29
280
     1
102
RTVSPost2010PropOp29
 70
     1
102
RTVSPost2010Prop30
280
     1
102
RTVSPost2010PropOp30
 70
     1
102
RTVSPost2010Prop31
280
     0
102
RTVSPost2010PropOp31
 70
     1
102
RTVSPost2010Prop32
280
     0
102
RTVSPost2010PropOp32
 70
     1
102
RTVSPost2010Prop33
280
     0
102
RTVSPost2010PropOp33
 70
     1
102
RTVSPost2010Prop34
280
     0
102
RTVSPost2010PropOp34
 70
     1
102
RTVSPost2010Prop35
280
     0
102
RTVSPost2010PropOp35
 70
     1
102
RTVSPost2010Prop36
280
     0
102
RTVSPost2010PropOp36
 70
     1
102
RTVSPost2010Prop37
 90
       50
102
RTVSPost2010PropOp37
 70
     1
102
RTVSPost2010Prop38
140
0.0
102
RTVSPost2010PropOp38
 70
     1
102
RTVSPost2010Prop39
140
1.0
102
RTVSPost2010PropOp39
 70
     1
102
RTVSPost2010Prop40
 90
        0
102
RTVSPost2010PropOp40
 70
     1
102
RTVSPost2010Prop41ColorIndex
 90
       18
102
RTVSPost2010Prop41ColorRGB
 90
        0
102
RTVSPost2010PropOp41
 70
     1
102
RTVSPost2010Prop42
 90
       50
102
RTVSPost2010PropOp42
 70
     1
102
RTVSPost2010Prop43
 90
        3
102
RTVSPost2010PropOp43
 70
     1
102
RTVSPost2010Prop44ColorIndex
 90
        5
102
RTVSPost2010Prop44ColorRGB
 90
      255
102
RTVSPost2010PropOp44
 70
     1
102
RTVSPost2010Prop45
280
     0
102
RTVSPost2010PropOp45
 70
     1
102
RTVSPost2010Prop46
 90
       50
102
RTVSPost2010PropOp46
 70
     1
102
RTVSPost2010Prop47
 90
       50
102
RTVSPost2010PropOp47
 70
     1
102
RTVSPost2010Prop48
 90
       50
102
RTVSPost2010PropOp48
 70
     1
102
RTVSPost2010Prop49
280
     0
102
RTVSPost2010PropOp49
 70
     1
102
RTVSPost2010Prop50
 90
       50
102
RTVSPost2010PropOp50
 70
     1
102
RTVSPost2010Prop51ColorIndex
 90
      256
102
RTVSPost2010Prop51ColorRGB
 90
-16777216
102
RTVSPost2010PropOp51
 70
     0
102
RTVSPost2010Prop52
140
1.0
102
RTVSPost2010PropOp52
 70
     0
102
RTVSPost2010Prop53
 90
        2
102
RTVSPost2010PropOp53
 70
     1
102
RTVSPost2010Prop54
  1
strokes_ogs.tif
102
RTVSPost2010PropOp54
 70
     1
102
RTVSPost2010Prop55
280
     0
102
RTVSPost2010PropOp55
 70
     1
102
RTVSPost2010Prop56
140
1.0
102
RTVSPost2010PropOp56
 70
     1
102
RTVSPost2010Prop57
140
1.0
102
RTVSPost2010PropOp57
 70
     1
  0
XRECORD
  5
2B5
102
{ACAD_REACTORS
330
2B4
102
}
330
2B4
100
AcDbXrecord
280
     1
102
RTVSPropertyOp0
 70
     1
102
RTVSPropertyOp1
 70
     1
102
RTVSPropertyOp2
 70
     1
102
RTVSPropertyOp3
 70
     1
102
RTVSPropertyOp4
 70
     1
102
RTVSPropertyOp5
 70
     1
102
RTVSPropertyOp6
 70
     1
102
RTVSPropertyOp7
 70
     1
102
RTVSPropertyOp8
 70
     1
102
RTVSPropertyOp9
 70
     1
102
RTVSPropertyOp10
 70
     1
102
RTVSPropertyOp11
 70
     1
102
RTVSPropertyOp12
 70
     1
102
RTVSPropertyOp13
 70
     1
102
RTVSPropertyOp14
 70
     1
102
RTVSPropertyOp15
 70
     1
102
RTVSPropertyOp16
 70
     1
102
RTVSPropertyOp17
 70
     1
102
RTVSPropertyOp18
 70
     1
102
RTVSPropertyOp19
 70
     1
102
RTVSPropertyOp20
 70
     1
102
RTVSPropertyOp21
 70
     1
102
RTVSPropertyOp22
 70
     1
102
RTVSPropertyOp23
 70
     1
102
RTVSPropertyOp24
 70
     1
102
RTVSPropertyOp25
 70
     1
102
RTVSPropertyOp26
 70
     1
102
RTVSPropertyOp27
 70
     1
102
RTVSPropertyOp28
 70
     1
102
RTVSPropertyOp29
 70
     1
102
RTVSPropertyOp30
 70
     1
102
RTVSPropertyOp31
 70
     1
102
RTVSPropertyOp32
 70
     1
102
RTVSPropertyOp33
 70
     1
102
RTVSPropertyOp34
 70
     1
102
RTVSPropertyOp35
 70
     1
102
RTVSPropertyOp36
 70
     1
102
RTVSPropertyOp37
 70
     1
102
RTVSPropertyOp38
 70
     1
102
RTVSPropertyOp39
 70
     1
102
RTVSPropertyOp40
 70
     1
102
RTVSPropertyOp41
 70
     1
102
RTVSPropertyOp42
 70
     1
102
RTVSPropertyOp43
 70
     1
102
RTVSPropertyOp44
 70
     1
102
RTVSPropertyOp45
 70
     1
102
RTVSPropertyOp46
 70
     1
102
RTVSPropertyOp47
 70
     1
102
RTVSPropertyOp48
 70
     1
102
RTVSPropertyOp49
 70
     1
102
RTVSPropertyOp50
 70
     1
102
RTVSPropertyOp51
 70
     0
102
RTVSPropertyOp52
 70
     0
102
RTVSPropertyOp53
 70
     1
102
RTVSPropertyOp54
 70
     1
102
RTVSPropertyOp55
 70
     1
102
RTVSPropertyOp56
 70
     1
102
RTVSPropertyOp57
 70
     1
102
RTVSPost2010Prop28
280
     0
102
RTVSPost2010PropOp28
 70
     1
102
RTVSPost2010Prop29
280
     1
102
RTVSPost2010PropOp29
 70
     1
102
RTVSPost2010Prop30
280
     1
102
RTVSPost2010PropOp30
 70
     1
102
RTVSPost2010Prop31
280
     0
102
RTVSPost2010PropOp31
 70
     1
102
RTVSPost2010Prop32
280
     0
102
RTVSPost2010PropOp32
 70
     1
102
RTVSPost2010Prop33
280
     0
102
RTVSPost2010PropOp33
 70
     1
102
RTVSPost2010Prop34
280
     0
102
RTVSPost2010PropOp34
 70
     1
102
RTVSPost2010Prop35
280
     0
102
RTVSPost2010PropOp35
 70
     1
102
RTVSPost2010Prop36
280
     0
102
RTVSPost2010PropOp36
 70
     1
102
RTVSPost2010Prop37
 90
       50
102
RTVSPost2010PropOp37
 70
     1
102
RTVSPost2010Prop38
140
0.0
102
RTVSPost2010PropOp38
 70
     1
102
RTVSPost2010Prop39
140
1.0
102
RTVSPost2010PropOp39
 70
     1
102
RTVSPost2010Prop40
 90
        0
102
RTVSPost2010PropOp40
 70
     1
102
RTVSPost2010Prop41ColorIndex
 90
       18
102
RTVSPost2010Prop41ColorRGB
 90
        0
102
RTVSPost2010PropOp41
 70
     1
102
RTVSPost2010Prop42
 90
       50
102
RTVSPost2010PropOp42
 70
     1
102
RTVSPost2010Prop43
 90
        3
102
RTVSPost2010PropOp43
 70
     1
102
RTVSPost2010Prop44ColorIndex
 90
        5
102
RTVSPost2010Prop44ColorRGB
 90
      255
102
RTVSPost2010PropOp44
 70
     1
102
RTVSPost2010Prop45
280
     0
102
RTVSPost2010PropOp45
 70
     1
102
RTVSPost2010Prop46
 90
       50
102
RTVSPost2010PropOp46
 70
     1
102
RTVSPost2010Prop47
 90
       50
102
RTVSPost2010PropOp47
 70
     1
102
RTVSPost2010Prop48
 90
       50
102
RTVSPost2010PropOp48
 70
     1
102
RTVSPost2010Prop49
280
     0
102
RTVSPost2010PropOp49
 70
     1
102
RTVSPost2010Prop50
 90
       50
102
RTVSPost2010PropOp50
 70
     1
102
RTVSPost2010Prop51ColorIndex
 90
      256
102
RTVSPost2010Prop51ColorRGB
 90
-16777216
102
RTVSPost2010PropOp51
 70
     0
102
RTVSPost2010Prop52
140
1.0
102
RTVSPost2010PropOp52
 70
     0
102
RTVSPost2010Prop53
 90
        2
102
RTVSPost2010PropOp53
 70
     1
102
RTVSPost2010Prop54
  1
strokes_ogs.tif
102
RTVSPost2010PropOp54
 70
     1
102
RTVSPost2010Prop55
280
     0
102
RTVSPost2010PropOp55
 70
     1
102
RTVSPost2010Prop56
140
1.0
102
RTVSPost2010PropOp56
 70
     1
102
RTVSPost2010Prop57
140
1.0
102
RTVSPost2010PropOp57
 70
     1
  0
XRECORD
  5
2A7
102
{ACAD_REACTORS
330
2A6
102
}
330
2A6
100
AcDbXrecord
280
     1
102
RTVSPropertyOp0
 70
     1
102
RTVSPropertyOp1
 70
     1
102
RTVSPropertyOp2
 70
     1
102
RTVSPropertyOp3
 70
     1
102
RTVSPropertyOp4
 70
     1
102
RTVSPropertyOp5
 70
     1
102
RTVSPropertyOp6
 70
     1
102
RTVSPropertyOp7
 70
     1
102
RTVSPropertyOp8
 70
     1
102
RTVSPropertyOp9
 70
     1
102
RTVSPropertyOp10
 70
     1
102
RTVSPropertyOp11
 70
     1
102
RTVSPropertyOp12
 70
     1
102
RTVSPropertyOp13
 70
     1
102
RTVSPropertyOp14
 70
     1
102
RTVSPropertyOp15
 70
     1
102
RTVSPropertyOp16
 70
     1
102
RTVSPropertyOp17
 70
     1
102
RTVSPropertyOp18
 70
     1
102
RTVSPropertyOp19
 70
     1
102
RTVSPropertyOp20
 70
     1
102
RTVSPropertyOp21
 70
     1
102
RTVSPropertyOp22
 70
     1
102
RTVSPropertyOp23
 70
     1
102
RTVSPropertyOp24
 70
     1
102
RTVSPropertyOp25
 70
     1
102
RTVSPropertyOp26
 70
     1
102
RTVSPropertyOp27
 70
     1
102
RTVSPropertyOp28
 70
     1
102
RTVSPropertyOp29
 70
     1
102
RTVSPropertyOp30
 70
     1
102
RTVSPropertyOp31
 70
     1
102
RTVSPropertyOp32
 70
     1
102
RTVSPropertyOp33
 70
     1
102
RTVSPropertyOp34
 70
     1
102
RTVSPropertyOp35
 70
     1
102
RTVSPropertyOp36
 70
     1
102
RTVSPropertyOp37
 70
     1
102
RTVSPropertyOp38
 70
     1
102
RTVSPropertyOp39
 70
     1
102
RTVSPropertyOp40
 70
     1
102
RTVSPropertyOp41
 70
     1
102
RTVSPropertyOp42
 70
     1
102
RTVSPropertyOp43
 70
     1
102
RTVSPropertyOp44
 70
     1
102
RTVSPropertyOp45
 70
     1
102
RTVSPropertyOp46
 70
     1
102
RTVSPropertyOp47
 70
     1
102
RTVSPropertyOp48
 70
     1
102
RTVSPropertyOp49
 70
     1
102
RTVSPropertyOp50
 70
     1
102
RTVSPropertyOp51
 70
     0
102
RTVSPropertyOp52
 70
     0
102
RTVSPropertyOp53
 70
     1
102
RTVSPropertyOp54
 70
     1
102
RTVSPropertyOp55
 70
     1
102
RTVSPropertyOp56
 70
     1
102
RTVSPropertyOp57
 70
     1
102
RTVSPost2010Prop28
280
     0
102
RTVSPost2010PropOp28
 70
     1
102
RTVSPost2010Prop29
280
     1
102
RTVSPost2010PropOp29
 70
     1
102
RTVSPost2010Prop30
280
     1
102
RTVSPost2010PropOp30
 70
     1
102
RTVSPost2010Prop31
280
     0
102
RTVSPost2010PropOp31
 70
     1
102
RTVSPost2010Prop32
280
     0
102
RTVSPost2010PropOp32
 70
     1
102
RTVSPost2010Prop33
280
     0
102
RTVSPost2010PropOp33
 70
     1
102
RTVSPost2010Prop34
280
     0
102
RTVSPost2010PropOp34
 70
     1
102
RTVSPost2010Prop35
280
     0
102
RTVSPost2010PropOp35
 70
     1
102
RTVSPost2010Prop36
280
     0
102
RTVSPost2010PropOp36
 70
     1
102
RTVSPost2010Prop37
 90
       50
102
RTVSPost2010PropOp37
 70
     1
102
RTVSPost2010Prop38
140
0.0
102
RTVSPost2010PropOp38
 70
     1
102
RTVSPost2010Prop39
140
1.0
102
RTVSPost2010PropOp39
 70
     1
102
RTVSPost2010Prop40
 90
        0
102
RTVSPost2010PropOp40
 70
     1
102
RTVSPost2010Prop41ColorIndex
 90
       18
102
RTVSPost2010Prop41ColorRGB
 90
        0
102
RTVSPost2010PropOp41
 70
     1
102
RTVSPost2010Prop42
 90
       50
102
RTVSPost2010PropOp42
 70
     1
102
RTVSPost2010Prop43
 90
        3
102
RTVSPost2010PropOp43
 70
     1
102
RTVSPost2010Prop44ColorIndex
 90
        5
102
RTVSPost2010Prop44ColorRGB
 90
      255
102
RTVSPost2010PropOp44
 70
     1
102
RTVSPost2010Prop45
280
     0
102
RTVSPost2010PropOp45
 70
     1
102
RTVSPost2010Prop46
 90
       50
102
RTVSPost2010PropOp46
 70
     1
102
RTVSPost2010Prop47
 90
       50
102
RTVSPost2010PropOp47
 70
     1
102
RTVSPost2010Prop48
 90
       50
102
RTVSPost2010PropOp48
 70
     1
102
RTVSPost2010Prop49
280
     0
102
RTVSPost2010PropOp49
 70
     1
102
RTVSPost2010Prop50
 90
       50
102
RTVSPost2010PropOp50
 70
     1
102
RTVSPost2010Prop51ColorIndex
 90
      256
102
RTVSPost2010Prop51ColorRGB
 90
-16777216
102
RTVSPost2010PropOp51
 70
     0
102
RTVSPost2010Prop52
140
1.0
102
RTVSPost2010PropOp52
 70
     0
102
RTVSPost2010Prop53
 90
        2
102
RTVSPost2010PropOp53
 70
     1
102
RTVSPost2010Prop54
  1
strokes_ogs.tif
102
RTVSPost2010PropOp54
 70
     1
102
RTVSPost2010Prop55
280
     0
102
RTVSPost2010PropOp55
 70
     1
102
RTVSPost2010Prop56
140
1.0
102
RTVSPost2010PropOp56
 70
     1
102
RTVSPost2010Prop57
140
1.0
102
RTVSPost2010PropOp57
 70
     1
  0
XRECORD
  5
2C7
102
{ACAD_REACTORS
330
2C6
102
}
330
2C6
100
AcDbXrecord
280
     1
102
RTVSPropertyOp0
 70
     1
102
RTVSPropertyOp1
 70
     1
102
RTVSPropertyOp2
 70
     1
102
RTVSPropertyOp3
 70
     1
102
RTVSPropertyOp4
 70
     1
102
RTVSPropertyOp5
 70
     1
102
RTVSPropertyOp6
 70
     1
102
RTVSPropertyOp7
 70
     1
102
RTVSPropertyOp8
 70
     1
102
RTVSPropertyOp9
 70
     1
102
RTVSPropertyOp10
 70
     1
102
RTVSPropertyOp11
 70
     1
102
RTVSPropertyOp12
 70
     1
102
RTVSPropertyOp13
 70
     1
102
RTVSPropertyOp14
 70
     1
102
RTVSPropertyOp15
 70
     1
102
RTVSPropertyOp16
 70
     1
102
RTVSPropertyOp17
 70
     1
102
RTVSPropertyOp18
 70
     1
102
RTVSPropertyOp19
 70
     1
102
RTVSPropertyOp20
 70
     1
102
RTVSPropertyOp21
 70
     1
102
RTVSPropertyOp22
 70
     1
102
RTVSPropertyOp23
 70
     1
102
RTVSPropertyOp24
 70
     1
102
RTVSPropertyOp25
 70
     1
102
RTVSPropertyOp26
 70
     1
102
RTVSPropertyOp27
 70
     1
102
RTVSPropertyOp28
 70
     1
102
RTVSPropertyOp29
 70
     1
102
RTVSPropertyOp30
 70
     1
102
RTVSPropertyOp31
 70
     1
102
RTVSPropertyOp32
 70
     1
102
RTVSPropertyOp33
 70
     1
102
RTVSPropertyOp34
 70
     1
102
RTVSPropertyOp35
 70
     1
102
RTVSPropertyOp36
 70
     1
102
RTVSPropertyOp37
 70
     1
102
RTVSPropertyOp38
 70
     1
102
RTVSPropertyOp39
 70
     1
102
RTVSPropertyOp40
 70
     1
102
RTVSPropertyOp41
 70
     1
102
RTVSPropertyOp42
 70
     1
102
RTVSPropertyOp43
 70
     1
102
RTVSPropertyOp44
 70
     1
102
RTVSPropertyOp45
 70
     1
102
RTVSPropertyOp46
 70
     1
102
RTVSPropertyOp47
 70
     1
102
RTVSPropertyOp48
 70
     1
102
RTVSPropertyOp49
 70
     1
102
RTVSPropertyOp50
 70
     1
102
RTVSPropertyOp51
 70
     0
102
RTVSPropertyOp52
 70
     0
102
RTVSPropertyOp53
 70
     1
102
RTVSPropertyOp54
 70
     1
102
RTVSPropertyOp55
 70
     1
102
RTVSPropertyOp56
 70
     1
102
RTVSPropertyOp57
 70
     1
102
RTVSPost2010Prop28
280
     0
102
RTVSPost2010PropOp28
 70
     1
102
RTVSPost2010Prop29
280
     1
102
RTVSPost2010PropOp29
 70
     1
102
RTVSPost2010Prop30
280
     1
102
RTVSPost2010PropOp30
 70
     1
102
RTVSPost2010Prop31
280
     0
102
RTVSPost2010PropOp31
 70
     1
102
RTVSPost2010Prop32
280
     0
102
RTVSPost2010PropOp32
 70
     1
102
RTVSPost2010Prop33
280
     0
102
RTVSPost2010PropOp33
 70
     1
102
RTVSPost2010Prop34
280
     0
102
RTVSPost2010PropOp34
 70
     1
102
RTVSPost2010Prop35
280
     0
102
RTVSPost2010PropOp35
 70
     1
102
RTVSPost2010Prop36
280
     0
102
RTVSPost2010PropOp36
 70
     1
102
RTVSPost2010Prop37
 90
       50
102
RTVSPost2010PropOp37
 70
     1
102
RTVSPost2010Prop38
140
0.0
102
RTVSPost2010PropOp38
 70
     1
102
RTVSPost2010Prop39
140
1.0
102
RTVSPost2010PropOp39
 70
     1
102
RTVSPost2010Prop40
 90
        0
102
RTVSPost2010PropOp40
 70
     1
102
RTVSPost2010Prop41ColorIndex
 90
       18
102
RTVSPost2010Prop41ColorRGB
 90
        0
102
RTVSPost2010PropOp41
 70
     1
102
RTVSPost2010Prop42
 90
       50
102
RTVSPost2010PropOp42
 70
     1
102
RTVSPost2010Prop43
 90
        3
102
RTVSPost2010PropOp43
 70
     1
102
RTVSPost2010Prop44ColorIndex
 90
        5
102
RTVSPost2010Prop44ColorRGB
 90
      255
102
RTVSPost2010PropOp44
 70
     1
102
RTVSPost2010Prop45
280
     0
102
RTVSPost2010PropOp45
 70
     1
102
RTVSPost2010Prop46
 90
       50
102
RTVSPost2010PropOp46
 70
     1
102
RTVSPost2010Prop47
 90
       50
102
RTVSPost2010PropOp47
 70
     1
102
RTVSPost2010Prop48
 90
       50
102
RTVSPost2010PropOp48
 70
     1
102
RTVSPost2010Prop49
280
     0
102
RTVSPost2010PropOp49
 70
     1
102
RTVSPost2010Prop50
 90
       50
102
RTVSPost2010PropOp50
 70
     1
102
RTVSPost2010Prop51ColorIndex
 90
      256
102
RTVSPost2010Prop51ColorRGB
 90
-16777216
102
RTVSPost2010PropOp51
 70
     0
102
RTVSPost2010Prop52
140
1.0
102
RTVSPost2010PropOp52
 70
     0
102
RTVSPost2010Prop53
 90
        2
102
RTVSPost2010PropOp53
 70
     1
102
RTVSPost2010Prop54
  1
strokes_ogs.tif
102
RTVSPost2010PropOp54
 70
     1
102
RTVSPost2010Prop55
280
     0
102
RTVSPost2010PropOp55
 70
     1
102
RTVSPost2010Prop56
140
1.0
102
RTVSPost2010PropOp56
 70
     1
102
RTVSPost2010Prop57
140
1.0
102
RTVSPost2010PropOp57
 70
     1
  0
ENDSEC
  0
EOF
